  0
SECTION
  2
HEADER
  9
$ACADVER
  1
AC1015
  9
$ACADMAINTVER
 70
     6
  9
$DWGCODEPAGE
  3
ANSI_1254
  9
$INSBASE
 10
0.0
 20
0.0
 30
0.0
  9
$EXTMIN
 10
0.0
 20
0.0
 30
0.0
  9
$EXTMAX
 10
279.4
 20
215.9
 30
0.0
  9
$LIMMIN
 10
0.0
 20
0.0
  9
$LIMMAX
 10
279.4
 20
215.9
  9
$ORTHOMODE
 70
     0
  9
$REGENMODE
 70
     1
  9
$FILLMODE
 70
     1
  9
$QTEXTMODE
 70
     0
  9
$MIRRTEXT
 70
     1
  9
$LTSCALE
 40
1.0
  9
$ATTMODE
 70
     1
  9
$TEXTSIZE
 40
3.5
  9
$TRACEWID
 40
1.0
  9
$TEXTSTYLE
  7
Standard
  9
$CLAYER
  8
0
  9
$CELTYPE
  6
ByLayer
  9
$CECOLOR
 62
   256
  9
$CELTSCALE
 40
1.0
  9
$DISPSILH
 70
     0
  9
$DIMSCALE
 40
1.0
  9
$DIMASZ
 40
3.5
  9
$DIMEXO
 40
1.0
  9
$DIMDLI
 40
3.75
  9
$DIMRND
 40
0.0
  9
$DIMDLE
 40
0.0
  9
$DIMEXE
 40
1.0
  9
$DIMTP
 40
0.0
  9
$DIMTM
 40
0.0
  9
$DIMTXT
 40
3.5
  9
$DIMCEN
 40
2.5
  9
$DIMTSZ
 40
0.0
  9
$DIMTOL
 70
     0
  9
$DIMLIM
 70
     0
  9
$DIMTIH
 70
     1
  9
$DIMTOH
 70
     1
  9
$DIMSE1
 70
     0
  9
$DIMSE2
 70
     0
  9
$DIMTAD
 70
     1
  9
$DIMZIN
 70
     0
  9
$DIMBLK
  1

  9
$DIMASO
 70
     1
  9
$DIMSHO
 70
     1
  9
$DIMPOST
  1

  9
$DIMAPOST
  1

  9
$DIMALT
 70
     0
  9
$DIMALTD
 70
     3
  9
$DIMALTF
 40
0.0393700787
  9
$DIMLFAC
 40
1.0
  9
$DIMTOFL
 70
     1
  9
$DIMTVP
 40
0.0
  9
$DIMTIX
 70
     0
  9
$DIMSOXD
 70
     0
  9
$DIMSAH
 70
     0
  9
$DIMBLK1
  1

  9
$DIMBLK2
  1

  9
$DIMSTYLE
  2
ISO-25
  9
$DIMCLRD
 70
     0
  9
$DIMCLRE
 70
     0
  9
$DIMCLRT
 70
     0
  9
$DIMTFAC
 40
1.0
  9
$DIMGAP
 40
1.524
  9
$DIMJUST
 70
     0
  9
$DIMSD1
 70
     0
  9
$DIMSD2
 70
     0
  9
$DIMTOLJ
 70
     0
  9
$DIMTZIN
 70
     0
  9
$DIMALTZ
 70
     0
  9
$DIMALTTZ
 70
     0
  9
$DIMUPT
 70
     0
  9
$DIMDEC
 70
     2
  9
$DIMTDEC
 70
     2
  9
$DIMALTU
 70
     2
  9
$DIMALTTD
 70
     3
  9
$DIMTXSTY
  7
Standard
  9
$DIMAUNIT
 70
     0
  9
$DIMADEC
 70
     2
  9
$DIMALTRND
 40
0.0
  9
$DIMAZIN
 70
     0
  9
$DIMDSEP
 70
    44
  9
$DIMATFIT
 70
     3
  9
$DIMFRAC
 70
     0
  9
$DIMLDRBLK
  1

  9
$DIMLUNIT
 70
     2
  9
$DIMLWD
 70
    -2
  9
$DIMLWE
 70
    -2
  9
$DIMTMOVE
 70
     0
  9
$LUNITS
 70
     2
  9
$LUPREC
 70
     2
  9
$SKETCHINC
 40
1.0
  9
$FILLETRAD
 40
10.0
  9
$AUNITS
 70
     0
  9
$AUPREC
 70
     2
  9
$MENU
  1
.
  9
$ELEVATION
 40
0.0
  9
$PELEVATION
 40
0.0
  9
$THICKNESS
 40
0.0
  9
$LIMCHECK
 70
     0
  9
$CHAMFERA
 40
0.0
  9
$CHAMFERB
 40
0.0
  9
$CHAMFERC
 40
0.0
  9
$CHAMFERD
 40
0.0
  9
$SKPOLY
 70
     0
  9
$TDCREATE
 40
2458985.711417245
  9
$TDUCREATE
 40
2458985.586417245
  9
$TDUPDATE
 40
2458985.711417616
  9
$TDUUPDATE
 40
2458985.586417616
  9
$TDINDWG
 40
0.0000000116
  9
$TDUSRTIMER
 40
0.0000000116
  9
$USRTIMER
 70
     1
  9
$ANGBASE
 50
0.0
  9
$ANGDIR
 70
     0
  9
$PDMODE
 70
     0
  9
$PDSIZE
 40
-1.0
  9
$PLINEWID
 40
0.0
  9
$SPLFRAME
 70
     0
  9
$SPLINETYPE
 70
     6
  9
$SPLINESEGS
 70
     8
  9
$HANDSEED
  5
E7
  9
$SURFTAB1
 70
     6
  9
$SURFTAB2
 70
     6
  9
$SURFTYPE
 70
     6
  9
$SURFU
 70
     6
  9
$SURFV
 70
     6
  9
$UCSBASE
  2

  9
$UCSNAME
  2

  9
$UCSORG
 10
0.0
 20
0.0
 30
0.0
  9
$UCSXDIR
 10
1.0
 20
0.0
 30
0.0
  9
$UCSYDIR
 10
0.0
 20
1.0
 30
0.0
  9
$UCSORTHOREF
  2

  9
$UCSORTHOVIEW
 70
     0
  9
$UCSORGTOP
 10
0.0
 20
0.0
 30
0.0
  9
$UCSORGBOTTOM
 10
0.0
 20
0.0
 30
0.0
  9
$UCSORGLEFT
 10
0.0
 20
0.0
 30
0.0
  9
$UCSORGRIGHT
 10
0.0
 20
0.0
 30
0.0
  9
$UCSORGFRONT
 10
0.0
 20
0.0
 30
0.0
  9
$UCSORGBACK
 10
0.0
 20
0.0
 30
0.0
  9
$PUCSBASE
  2

  9
$PUCSNAME
  2

  9
$PUCSORG
 10
0.0
 20
0.0
 30
0.0
  9
$PUCSXDIR
 10
1.0
 20
0.0
 30
0.0
  9
$PUCSYDIR
 10
0.0
 20
1.0
 30
0.0
  9
$PUCSORTHOREF
  2

  9
$PUCSORTHOVIEW
 70
     0
  9
$PUCSORGTOP
 10
0.0
 20
0.0
 30
0.0
  9
$PUCSORGBOTTOM
 10
0.0
 20
0.0
 30
0.0
  9
$PUCSORGLEFT
 10
0.0
 20
0.0
 30
0.0
  9
$PUCSORGRIGHT
 10
0.0
 20
0.0
 30
0.0
  9
$PUCSORGFRONT
 10
0.0
 20
0.0
 30
0.0
  9
$PUCSORGBACK
 10
0.0
 20
0.0
 30
0.0
  9
$USERI1
 70
     0
  9
$USERI2
 70
     0
  9
$USERI3
 70
     0
  9
$USERI4
 70
     0
  9
$USERI5
 70
     0
  9
$USERR1
 40
0.0
  9
$USERR2
 40
0.0
  9
$USERR3
 40
0.0
  9
$USERR4
 40
0.0
  9
$USERR5
 40
0.0
  9
$WORLDVIEW
 70
     1
  9
$SHADEDGE
 70
     3
  9
$SHADEDIF
 70
    70
  9
$TILEMODE
 70
     1
  9
$MAXACTVP
 70
    64
  9
$PINSBASE
 10
0.0
 20
0.0
 30
0.0
  9
$PLIMCHECK
 70
     0
  9
$PEXTMIN
 10
1.0000000000E+20
 20
1.0000000000E+20
 30
1.0000000000E+20
  9
$PEXTMAX
 10
-1.0000000000E+20
 20
-1.0000000000E+20
 30
-1.0000000000E+20
  9
$PLIMMIN
 10
0.0
 20
0.0
  9
$PLIMMAX
 10
420.0
 20
297.0
  9
$UNITMODE
 70
     0
  9
$VISRETAIN
 70
     1
  9
$PLINEGEN
 70
     0
  9
$PSLTSCALE
 70
     1
  9
$TREEDEPTH
 70
  3020
  9
$CMLSTYLE
  2
Standard
  9
$CMLJUST
 70
     0
  9
$CMLSCALE
 40
20.0
  9
$PROXYGRAPHICS
 70
     1
  9
$MEASUREMENT
 70
     1
  9
$CELWEIGHT
370
    -1
  9
$ENDCAPS
280
     0
  9
$JOINSTYLE
280
     0
  9
$LWDISPLAY
290
     1
  9
$INSUNITS
 70
     4
  9
$HYPERLINKBASE
  1

  9
$STYLESHEET
  1

  9
$XEDIT
290
     1
  9
$CEPSNTYPE
380
     0
  9
$PSTYLEMODE
290
     1
  9
$FINGERPRINTGUID
  2
{2d78591a-b668-41d9-a766-f83c90845818}
  9
$VERSIONGUID
  2
{FAEB1C32-E019-11D5-929B-00C0DF256EC4}
  9
$EXTNAMES
290
     1
  9
$PSVPSCALE
 40
0.0
  9
$OLESTARTUP
290
     0
  0
ENDSEC
  0
SECTION
  2
CLASSES
  0
CLASS
  1
ACDBDICTIONARYWDFLT
  2
AcDbDictionaryWithDefault
  3
ObjectDBX Classes
 90
        0
280
     0
281
     0
  0
CLASS
  1
VISUALSTYLE
  2
AcDbVisualStyle
  3
ObjectDBX Classes
 90
     4095
280
     0
281
     0
  0
CLASS
  1
MATERIAL
  2
AcDbMaterial
  3
ObjectDBX Classes
 90
     1153
280
     0
281
     0
  0
CLASS
  1
SCALE
  2
AcDbScale
  3
ObjectDBX Classes
 90
     1153
280
     0
281
     0
  0
CLASS
  1
TABLESTYLE
  2
AcDbTableStyle
  3
ObjectDBX Classes
 90
     4095
280
     0
281
     0
  0
CLASS
  1
MLEADERSTYLE
  2
AcDbMLeaderStyle
  3
ACDB_MLEADERSTYLE_CLASS
 90
     4095
280
     0
281
     0
  0
CLASS
  1
SUN
  2
AcDbSun
  3
SCENEOE
 90
     1153
280
     0
281
     0
  0
CLASS
  1
ACDBPLACEHOLDER
  2
AcDbPlaceHolder
  3
ObjectDBX Classes
 90
        0
280
     0
281
     0
  0
CLASS
  1
LAYOUT
  2
AcDbLayout
  3
ObjectDBX Classes
 90
        0
280
     0
281
     0
  0
ENDSEC
  0
SECTION
  2
TABLES
  0
TABLE
  2
VPORT
  5
8
330
0
100
AcDbSymbolTable
 70
     1
  0
VPORT
  5
29
330
8
100
AcDbSymbolTableRecord
100
AcDbViewportTableRecord
  2
*Active
 70
     0
 10
0.0
 20
0.0
 11
1.0
 21
1.0
 12
139.7
 22
107.95
 13
0.0
 23
0.0
 14
10.0
 24
10.0
 15
10.0
 25
10.0
 16
0.0
 26
0.0
 36
1.0
 17
0.0
 27
0.0
 37
0.0
 40
215.9
 41
1.2941176471
 42
50.0
 43
0.0
 44
0.0
 50
0.0
 51
0.0
 71
     0
 72
  2000
 73
     1
 74
     3
 75
     0
 76
     0
 77
     0
 78
     0
281
     0
 65
     1
110
0.0
120
0.0
130
0.0
111
1.0
121
0.0
131
0.0
112
0.0
122
1.0
132
0.0
 79
     0
146
0.0
  0
ENDTAB
  0
TABLE
  2
LTYPE
  5
5
330
0
100
AcDbSymbolTable
 70
     6
  0
LTYPE
  5
14
330
5
100
AcDbSymbolTableRecord
100
AcDbLinetypeTableRecord
  2
ByBlock
 70
     0
  3

 72
    65
 73
     0
 40
0.0
  0
LTYPE
  5
15
330
5
100
AcDbSymbolTableRecord
100
AcDbLinetypeTableRecord
  2
ByLayer
 70
     0
  3

 72
    65
 73
     0
 40
0.0
  0
LTYPE
  5
16
330
5
100
AcDbSymbolTableRecord
100
AcDbLinetypeTableRecord
  2
Continuous
 70
     0
  3
Solid line
 72
    65
 73
     0
 40
0.0
  0
LTYPE
  5
6E
330
5
100
AcDbSymbolTableRecord
100
AcDbLinetypeTableRecord
  2
HIDDEN
 70
     0
  3
Hidden __ __ __ __ __ __ __ __ __ __ __ __ __ __
 72
    65
 73
     2
 40
1.905
 49
1.27
 74
     0
 49
-0.635
 74
     0
  0
LTYPE
  5
6F
330
5
100
AcDbSymbolTableRecord
100
AcDbLinetypeTableRecord
  2
PHANTOM
 70
     0
  3
Phantom ______  __  __  ______  __  __  ______
 72
    65
 73
     6
 40
12.7
 49
6.35
 74
     0
 49
-1.27
 74
     0
 49
1.27
 74
     0
 49
-1.27
 74
     0
 49
1.27
 74
     0
 49
-1.27
 74
     0
  0
LTYPE
  5
70
330
5
100
AcDbSymbolTableRecord
100
AcDbLinetypeTableRecord
  2
CENTER
 70
     0
  3
Center ____ _ ____ _ ____ _ ____ _ ____ _ ____
 72
    65
 73
     4
 40
10.16
 49
6.35
 74
     0
 49
-1.27
 74
     0
 49
1.27
 74
     0
 49
-1.27
 74
     0
  0
LTYPE
  5
71
330
5
100
AcDbSymbolTableRecord
100
AcDbLinetypeTableRecord
  2
CENTERX2
 70
     0
  3
Center (2x) ________  __  ________  __  _____
 72
    65
 73
     4
 40
20.32
 49
12.7
 74
     0
 49
-2.54
 74
     0
 49
2.54
 74
     0
 49
-2.54
 74
     0
  0
LTYPE
  5
72
330
5
100
AcDbSymbolTableRecord
100
AcDbLinetypeTableRecord
  2
DOT2
 70
     0
  3
Dot (.5x) ........................................
 72
    65
 73
     2
 40
0.635
 49
0.0
 74
     0
 49
-0.635
 74
     0
  0
ENDTAB
  0
TABLE
  2
LAYER
  5
2
330
0
100
AcDbSymbolTable
 70
    17
  0
LAYER
  5
10
330
2
100
AcDbSymbolTableRecord
100
AcDbLayerTableRecord
  2
0
 70
     0
 62
     7
  6
Continuous
370
    -3
390
F
  0
LAYER
  5
73
330
2
100
AcDbSymbolTableRecord
100
AcDbLayerTableRecord
  2
FORMAT
 70
     0
 62
     7
  6
Continuous
370
    -3
390
F
  0
LAYER
  5
74
330
2
100
AcDbSymbolTableRecord
100
AcDbLayerTableRecord
  2
YARDIMCI_GEOMETRI
 70
     0
 62
    -6
  6
Continuous
290
     0
370
    -3
390
F
  0
LAYER
  5
75
330
2
100
AcDbSymbolTableRecord
100
AcDbLayerTableRecord
  2
SAYFA_CERCEVESI
 70
     0
 62
     7
  6
Continuous
370
    25
390
F
  0
LAYER
  5
76
330
2
100
AcDbSymbolTableRecord
100
AcDbLayerTableRecord
  2
ANTET
 70
     0
 62
     7
  6
Continuous
370
    -3
390
F
  0
LAYER
  5
77
330
2
100
AcDbSymbolTableRecord
100
AcDbLayerTableRecord
  2
OLCU
 70
     0
 62
   150
  6
Continuous
370
    -3
390
F
  0
LAYER
  5
78
330
2
100
AcDbSymbolTableRecord
100
AcDbLayerTableRecord
  2
METIN
 70
     0
 62
    96
  6
Continuous
370
    -3
390
F
  0
LAYER
  5
79
330
2
100
AcDbSymbolTableRecord
100
AcDbLayerTableRecord
  2
BALON
 70
     0
 62
     5
  6
Continuous
370
    -3
390
F
  0
LAYER
  5
7A
330
2
100
AcDbSymbolTableRecord
100
AcDbLayerTableRecord
  2
VURGU
 70
     0
 62
     7
  6
Continuous
370
    -3
390
F
  0
LAYER
  5
7B
330
2
100
AcDbSymbolTableRecord
100
AcDbLayerTableRecord
  2
SILIK
 70
     0
 62
     7
  6
Continuous
370
    -3
390
F
  0
LAYER
  5
7C
330
2
100
AcDbSymbolTableRecord
100
AcDbLayerTableRecord
  2
MODEL
 70
     0
 62
     7
  6
Continuous
370
    -3
390
F
  0
LAYER
  5
7D
330
2
100
AcDbSymbolTableRecord
100
AcDbLayerTableRecord
  2
DETAYLANDıRMA
 70
     0
 62
   190
  6
Continuous
370
    -3
390
F
  0
LAYER
  5
7E
330
2
100
AcDbSymbolTableRecord
100
AcDbLayerTableRecord
  2
TOLERANS
 70
     0
 62
   230
  6
Continuous
370
    -3
390
F
  0
LAYER
  5
7F
330
2
100
AcDbSymbolTableRecord
100
AcDbLayerTableRecord
  2
MERKEZ_CIZGILERI
 70
     0
 62
    30
  6
Continuous
370
    -3
390
F
  0
LAYER
  5
80
330
2
100
AcDbSymbolTableRecord
100
AcDbLayerTableRecord
  2
KESIT-DETAY_CIZGILERI
 70
     0
 62
     7
  6
Continuous
370
    -3
390
F
  0
LAYER
  5
81
330
2
100
AcDbSymbolTableRecord
100
AcDbLayerTableRecord
  2
\U+041E\U+0421\U+0415\U+0412\U+042B\U+0415
 70
     0
 62
     7
  6
Continuous
370
    -3
390
F
  0
LAYER
  5
82
330
2
100
AcDbSymbolTableRecord
100
AcDbLayerTableRecord
  2
\U+0412\U+041E\U+0414\U+042F\U+041D\U+042B\U+0415_\U+0417\U+041D\U+0410\U+041A\U+0418
 70
     0
 62
    11
  6
Continuous
370
    -3
390
F
  0
ENDTAB
  0
TABLE
  2
STYLE
  5
3
330
0
100
AcDbSymbolTable
 70
     1
  0
STYLE
  5
11
330
3
100
AcDbSymbolTableRecord
100
AcDbTextStyleTableRecord
  2
Standard
 70
     0
 40
0.0
 41
1.0
 50
0.0
 71
     0
 42
3.5
  3
txt
  4

  0
ENDTAB
  0
TABLE
  2
VIEW
  5
6
330
0
100
AcDbSymbolTable
 70
     0
  0
ENDTAB
  0
TABLE
  2
UCS
  5
7
330
0
100
AcDbSymbolTable
 70
     0
  0
ENDTAB
  0
TABLE
  2
APPID
  5
9
330
0
100
AcDbSymbolTable
 70
     1
  0
APPID
  5
12
330
9
100
AcDbSymbolTableRecord
100
AcDbRegAppTableRecord
  2
ACAD
 70
     0
  0
ENDTAB
  0
TABLE
  2
DIMSTYLE
  5
A
330
0
100
AcDbSymbolTable
 70
     1
100
AcDbDimStyleTable
  0
DIMSTYLE
105
27
330
A
100
AcDbSymbolTableRecord
100
AcDbDimStyleTableRecord
  2
ISO-25
 70
     0
 41
2.5
 42
0.625
 43
3.75
 44
1.25
 73
     0
 74
     0
 77
     1
 78
     8
140
2.5
141
2.5
143
0.0393700787
147
0.625
171
     3
172
     1
178
     0
271
     2
272
     2
274
     3
278
    44
283
     0
284
     8
340
11
  0
ENDTAB
  0
TABLE
  2
BLOCK_RECORD
  5
1
330
0
100
AcDbSymbolTable
 70
     2
  0
BLOCK_RECORD
  5
1F
330
1
100
AcDbSymbolTableRecord
100
AcDbBlockTableRecord
  2
*Model_Space
340
22
  0
BLOCK_RECORD
  5
1B
330
1
100
AcDbSymbolTableRecord
100
AcDbBlockTableRecord
  2
*Paper_Space
340
1E
  0
BLOCK_RECORD
  5
23
330
1
100
AcDbSymbolTableRecord
100
AcDbBlockTableRecord
  2
*Paper_Space0
340
26
  0
BLOCK_RECORD
  5
88
330
1
100
AcDbSymbolTableRecord
100
AcDbBlockTableRecord
  2
SW_CENTERMARKSYMBOL_0
340
0
102
{BLKREFS
331
93
102
}
  0
ENDTAB
  0
ENDSEC
  0
SECTION
  2
BLOCKS
  0
BLOCK
  5
20
330
1F
100
AcDbEntity
  8
0
100
AcDbBlockBegin
  2
*Model_Space
 70
     0
 10
0.0
 20
0.0
 30
0.0
  3
*Model_Space
  1

  0
ENDBLK
  5
21
330
1F
100
AcDbEntity
  8
0
100
AcDbBlockEnd
  0
BLOCK
  5
1C
330
1B
100
AcDbEntity
 67
     1
  8
0
100
AcDbBlockBegin
  2
*Paper_Space
 70
     0
 10
0.0
 20
0.0
 30
0.0
  3
*Paper_Space
  1

  0
ENDBLK
  5
1D
330
1B
100
AcDbEntity
 67
     1
  8
0
100
AcDbBlockEnd
  0
BLOCK
  5
24
330
23
100
AcDbEntity
  8
0
100
AcDbBlockBegin
  2
*Paper_Space0
 70
     0
 10
0.0
 20
0.0
 30
0.0
  3
*Paper_Space0
  1

  0
ENDBLK
  5
25
330
23
100
AcDbEntity
  8
0
100
AcDbBlockEnd
  0
BLOCK
  5
89
330
88
100
AcDbEntity
  8
0
100
AcDbBlockBegin
  2
SW_CENTERMARKSYMBOL_0
 70
     0
 10
0.0
 20
0.0
 30
0.0
  3
SW_CENTERMARKSYMBOL_0
  1

  0
LINE
  5
8B
330
88
100
AcDbEntity
  8
FORMAT
 62
     0
100
AcDbLine
 10
0.0
 20
0.0
 30
0.0
 11
0.0
 21
2.5
 31
0.0
  0
LINE
  5
8C
330
88
100
AcDbEntity
  8
FORMAT
 62
     0
100
AcDbLine
 10
0.0
 20
0.0
 30
0.0
 11
-2.5
 21
0.0
 31
0.0
  0
LINE
  5
8D
330
88
100
AcDbEntity
  8
FORMAT
 62
     0
100
AcDbLine
 10
0.0
 20
0.0
 30
0.0
 11
0.0
 21
-2.5
 31
0.0
  0
LINE
  5
8E
330
88
100
AcDbEntity
  8
FORMAT
 62
     0
100
AcDbLine
 10
0.0
 20
0.0
 30
0.0
 11
2.5
 21
0.0
 31
0.0
  0
LINE
  5
8F
330
88
100
AcDbEntity
  8
FORMAT
 62
     0
100
AcDbLine
 10
0.0
 20
5.0
 30
0.0
 11
0.0
 21
452.5
 31
0.0
  0
LINE
  5
90
330
88
100
AcDbEntity
  8
FORMAT
 62
     0
100
AcDbLine
 10
-5.0
 20
0.0
 30
0.0
 11
-452.5
 21
0.0
 31
0.0
  0
LINE
  5
91
330
88
100
AcDbEntity
  8
FORMAT
 62
     0
100
AcDbLine
 10
0.0
 20
-5.0
 30
0.0
 11
0.0
 21
-452.5
 31
0.0
  0
LINE
  5
92
330
88
100
AcDbEntity
  8
FORMAT
 62
     0
100
AcDbLine
 10
5.0
 20
0.0
 30
0.0
 11
452.5
 21
0.0
 31
0.0
  0
ENDBLK
  5
8A
330
88
100
AcDbEntity
  8
0
100
AcDbBlockEnd
  0
ENDSEC
  0
SECTION
  2
ENTITIES
  0
CIRCLE
  5
83
330
1F
100
AcDbEntity
  8
0
  6
Continuous
 62
     7
370
    25
100
AcDbCircle
 10
137.6499343763
 20
107.2411037053
 30
0.0
 40
315.0
  0
CIRCLE
  5
84
330
1F
100
AcDbEntity
  8
0
  6
Continuous
 62
     7
370
    25
100
AcDbCircle
 10
137.6499343763
 20
107.2411037053
 30
0.0
 40
277.6
  0
CIRCLE
  5
85
330
1F
100
AcDbEntity
  8
0
  6
Continuous
 62
     7
370
    25
100
AcDbCircle
 10
137.6499343763
 20
107.2411037053
 30
0.0
 40
355.0
  0
CIRCLE
  5
86
330
1F
100
AcDbEntity
  8
0
  6
Continuous
 62
     7
370
    25
100
AcDbCircle
 10
137.6499343763
 20
107.2411037053
 30
0.0
 40
400.0000000000001
  0
CIRCLE
  5
87
330
1F
100
AcDbEntity
  8
0
  6
Continuous
 62
     7
370
    25
100
AcDbCircle
 10
137.6499343763
 20
107.2411037053
 30
0.0
 40
450.0
  0
INSERT
  5
93
330
1F
100
AcDbEntity
  8
FORMAT
 62
     7
100
AcDbBlockReference
  2
SW_CENTERMARKSYMBOL_0
 10
137.6499343763
 20
107.2411037053
 30
0.0
  0
LINE
  5
94
330
1F
100
AcDbEntity
  8
0
  6
Continuous
 62
     7
370
    25
100
AcDbLine
 10
1224.0659424992
 20
-342.7588962947
 30
0.0
 11
1310.0659424992
 21
-342.7588962947
 31
0.0
  0
LINE
  5
95
330
1F
100
AcDbEntity
  8
0
  6
Continuous
 62
     7
370
    25
100
AcDbLine
 10
1310.0659424992
 20
557.2411037053
 30
0.0
 11
1224.0659424992
 21
557.2411037053
 31
0.0
  0
LINE
  5
96
330
1F
100
AcDbEntity
  8
0
  6
Continuous
 62
     7
370
    25
100
AcDbLine
 10
1310.0659424992
 20
-292.7588962947
 30
0.0
 11
1346.0659424992
 21
-292.7588962947
 31
0.0
  0
LINE
  5
97
330
1F
100
AcDbEntity
  8
0
  6
Continuous
 62
     7
370
    25
100
AcDbLine
 10
1346.0659424992
 20
507.2411037053
 30
0.0
 11
1310.0659424992
 21
507.2411037053
 31
0.0
  0
LINE
  5
98
330
1F
100
AcDbEntity
  8
0
  6
Continuous
 62
     7
370
    25
100
AcDbLine
 10
1346.0659424992
 20
-247.7588962947
 30
0.0
 11
1382.0659424992
 21
-247.7588962947
 31
0.0
  0
LINE
  5
99
330
1F
100
AcDbEntity
  8
0
  6
Continuous
 62
     7
370
    25
100
AcDbLine
 10
1382.0659424992
 20
462.2411037053
 30
0.0
 11
1346.0659424992
 21
462.2411037053
 31
0.0
  0
LINE
  5
9A
330
1F
100
AcDbEntity
  8
0
  6
Continuous
 62
     7
370
    25
100
AcDbLine
 10
1382.0659424992
 20
-207.7588962947
 30
0.0
 11
1418.0659424992
 21
-207.7588962947
 31
0.0
  0
LINE
  5
9B
330
1F
100
AcDbEntity
  8
0
  6
Continuous
 62
     7
370
    25
100
AcDbLine
 10
1418.0659424992
 20
422.2411037053
 30
0.0
 11
1382.0659424992
 21
422.2411037053
 31
0.0
  0
LINE
  5
9C
330
1F
100
AcDbEntity
  8
0
  6
Continuous
 62
     7
370
    25
100
AcDbLine
 10
1310.0659424992
 20
107.2411037053
 30
0.0
 11
1310.0659424992
 21
557.2411037053
 31
0.0
  0
LINE
  5
9D
330
1F
100
AcDbEntity
  8
0
  6
Continuous
 62
     7
370
    25
100
AcDbLine
 10
1310.0659424992
 20
-342.7588962947
 30
0.0
 11
1310.0659424992
 21
107.2411037053
 31
0.0
  0
LINE
  5
9E
330
1F
100
AcDbEntity
  8
0
  6
Continuous
 62
     7
370
    25
100
AcDbLine
 10
1224.0659424992
 20
107.2411037053
 30
0.0
 11
1224.0659424992
 21
557.2411037053
 31
0.0
  0
LINE
  5
9F
330
1F
100
AcDbEntity
  8
0
  6
Continuous
 62
     7
370
    25
100
AcDbLine
 10
1224.0659424992
 20
-342.7588962947
 30
0.0
 11
1224.0659424992
 21
107.2411037053
 31
0.0
  0
LINE
  5
A0
330
1F
100
AcDbEntity
  8
0
  6
Continuous
 62
     7
370
    25
100
AcDbLine
 10
1346.0659424992
 20
107.2411037053
 30
0.0
 11
1346.0659424992
 21
507.2411037053
 31
0.0
  0
LINE
  5
A1
330
1F
100
AcDbEntity
  8
0
  6
Continuous
 62
     7
370
    25
100
AcDbLine
 10
1346.0659424992
 20
-292.7588962947
 30
0.0
 11
1346.0659424992
 21
107.2411037053
 31
0.0
  0
LINE
  5
A2
330
1F
100
AcDbEntity
  8
0
  6
Continuous
 62
     7
370
    25
100
AcDbLine
 10
1382.0659424992
 20
107.2411037053
 30
0.0
 11
1382.0659424992
 21
462.2411037053
 31
0.0
  0
LINE
  5
A3
330
1F
100
AcDbEntity
  8
0
  6
Continuous
 62
     7
370
    25
100
AcDbLine
 10
1382.0659424992
 20
-247.7588962947
 30
0.0
 11
1382.0659424992
 21
107.2411037053
 31
0.0
  0
LINE
  5
A4
330
1F
100
AcDbEntity
  8
0
  6
Continuous
 62
     7
370
    25
100
AcDbLine
 10
1418.0659424992
 20
107.2411037053
 30
0.0
 11
1418.0659424992
 21
422.2411037053
 31
0.0
  0
LINE
  5
A5
330
1F
100
AcDbEntity
  8
0
  6
Continuous
 62
     7
370
    25
100
AcDbLine
 10
1418.0659424992
 20
-207.7588962947
 30
0.0
 11
1418.0659424992
 21
107.2411037053
 31
0.0
  0
LINE
  5
A6
330
1F
100
AcDbEntity
  8
0
  6
Continuous
 62
     7
370
    25
100
AcDbLine
 10
-793.9734488023
 20
557.2411037053
 30
0.0
 11
-879.9734488023
 21
557.2411037053
 31
0.0
  0
LINE
  5
A7
330
1F
100
AcDbEntity
  8
0
  6
Continuous
 62
     7
370
    25
100
AcDbLine
 10
-879.9734488023
 20
-342.7588962947
 30
0.0
 11
-793.9734488023
 21
-342.7588962947
 31
0.0
  0
LINE
  5
A8
330
1F
100
AcDbEntity
  8
0
  6
Continuous
 62
     7
370
    25
100
AcDbLine
 10
-879.9734488023
 20
507.2411037053
 30
0.0
 11
-915.9734488023
 21
507.2411037053
 31
0.0
  0
LINE
  5
A9
330
1F
100
AcDbEntity
  8
0
  6
Continuous
 62
     7
370
    25
100
AcDbLine
 10
-915.9734488023
 20
-292.7588962947
 30
0.0
 11
-879.9734488023
 21
-292.7588962947
 31
0.0
  0
LINE
  5
AA
330
1F
100
AcDbEntity
  8
0
  6
Continuous
 62
     7
370
    25
100
AcDbLine
 10
-915.9734488023
 20
462.2411037053
 30
0.0
 11
-951.9734488023
 21
462.2411037053
 31
0.0
  0
LINE
  5
AB
330
1F
100
AcDbEntity
  8
0
  6
Continuous
 62
     7
370
    25
100
AcDbLine
 10
-951.9734488023
 20
-247.7588962947
 30
0.0
 11
-915.9734488023
 21
-247.7588962947
 31
0.0
  0
LINE
  5
AC
330
1F
100
AcDbEntity
  8
0
  6
Continuous
 62
     7
370
    25
100
AcDbLine
 10
-951.9734488023
 20
422.2411037053
 30
0.0
 11
-987.9734488023
 21
422.2411037053
 31
0.0
  0
LINE
  5
AD
330
1F
100
AcDbEntity
  8
0
  6
Continuous
 62
     7
370
    25
100
AcDbLine
 10
-987.9734488023
 20
-207.7588962947
 30
0.0
 11
-951.9734488023
 21
-207.7588962947
 31
0.0
  0
LINE
  5
AE
330
1F
100
AcDbEntity
  8
0
  6
Continuous
 62
     7
370
    25
100
AcDbLine
 10
-879.9734488023
 20
557.2411037053
 30
0.0
 11
-879.9734488023
 21
-342.7588962947
 31
0.0
  0
LINE
  5
AF
330
1F
100
AcDbEntity
  8
0
  6
Continuous
 62
     7
370
    25
100
AcDbLine
 10
-793.9734488023
 20
557.2411037053
 30
0.0
 11
-793.9734488023
 21
-342.7588962947
 31
0.0
  0
LINE
  5
B0
330
1F
100
AcDbEntity
  8
0
  6
Continuous
 62
     7
370
    25
100
AcDbLine
 10
-915.9734488023
 20
507.2411037053
 30
0.0
 11
-915.9734488023
 21
-292.7588962947
 31
0.0
  0
LINE
  5
B1
330
1F
100
AcDbEntity
  8
0
  6
Continuous
 62
     7
370
    25
100
AcDbLine
 10
-951.9734488023
 20
462.2411037053
 30
0.0
 11
-951.9734488023
 21
-247.7588962947
 31
0.0
  0
LINE
  5
B2
330
1F
100
AcDbEntity
  8
0
  6
Continuous
 62
     7
370
    25
100
AcDbLine
 10
-987.9734488023
 20
422.2411037053
 30
0.0
 11
-987.9734488023
 21
-207.7588962947
 31
0.0
  0
LINE
  5
B3
330
1F
100
AcDbEntity
  8
0
  6
Continuous
 62
     7
370
    25
100
AcDbLine
 10
587.6499343763
 20
972.9965772629
 30
0.0
 11
587.6499343763
 21
1058.9965772629
 31
0.0
  0
LINE
  5
B4
330
1F
100
AcDbEntity
  8
0
  6
Continuous
 62
     7
370
    25
100
AcDbLine
 10
-312.3500656237
 20
1058.9965772629
 30
0.0
 11
-312.3500656237
 21
972.9965772629
 31
0.0
  0
LINE
  5
B5
330
1F
100
AcDbEntity
  8
0
  6
Continuous
 62
     7
370
    25
100
AcDbLine
 10
537.6499343763
 20
1058.9965772629
 30
0.0
 11
537.6499343763
 21
1094.9965772629
 31
0.0
  0
LINE
  5
B6
330
1F
100
AcDbEntity
  8
0
  6
Continuous
 62
     7
370
    25
100
AcDbLine
 10
-262.3500656237
 20
1094.9965772629
 30
0.0
 11
-262.3500656237
 21
1058.9965772629
 31
0.0
  0
LINE
  5
B7
330
1F
100
AcDbEntity
  8
0
  6
Continuous
 62
     7
370
    25
100
AcDbLine
 10
492.6499343763
 20
1094.9965772629
 30
0.0
 11
492.6499343763
 21
1130.9965772629
 31
0.0
  0
LINE
  5
B8
330
1F
100
AcDbEntity
  8
0
  6
Continuous
 62
     7
370
    25
100
AcDbLine
 10
-217.3500656237
 20
1130.9965772629
 30
0.0
 11
-217.3500656237
 21
1094.9965772629
 31
0.0
  0
LINE
  5
B9
330
1F
100
AcDbEntity
  8
0
  6
Continuous
 62
     7
370
    25
100
AcDbLine
 10
452.6499343763
 20
1130.9965772629
 30
0.0
 11
452.6499343763
 21
1166.9965772629
 31
0.0
  0
LINE
  5
BA
330
1F
100
AcDbEntity
  8
0
  6
Continuous
 62
     7
370
    25
100
AcDbLine
 10
-177.3500656237
 20
1166.9965772629
 30
0.0
 11
-177.3500656237
 21
1130.9965772629
 31
0.0
  0
LINE
  5
BB
330
1F
100
AcDbEntity
  8
0
  6
Continuous
 62
     7
370
    25
100
AcDbLine
 10
587.6499343763
 20
1058.9965772629
 30
0.0
 11
-312.3500656237
 21
1058.9965772629
 31
0.0
  0
LINE
  5
BC
330
1F
100
AcDbEntity
  8
0
  6
Continuous
 62
     7
370
    25
100
AcDbLine
 10
587.6499343763
 20
972.9965772629
 30
0.0
 11
-312.3500656237
 21
972.9965772629
 31
0.0
  0
LINE
  5
BD
330
1F
100
AcDbEntity
  8
0
  6
Continuous
 62
     7
370
    25
100
AcDbLine
 10
537.6499343763
 20
1094.9965772629
 30
0.0
 11
-262.3500656237
 21
1094.9965772629
 31
0.0
  0
LINE
  5
BE
330
1F
100
AcDbEntity
  8
0
  6
Continuous
 62
     7
370
    25
100
AcDbLine
 10
492.6499343763
 20
1130.9965772629
 30
0.0
 11
-217.3500656237
 21
1130.9965772629
 31
0.0
  0
LINE
  5
BF
330
1F
100
AcDbEntity
  8
0
  6
Continuous
 62
     7
370
    25
100
AcDbLine
 10
452.6499343763
 20
1166.9965772629
 30
0.0
 11
-177.3500656237
 21
1166.9965772629
 31
0.0
  0
LINE
  5
C0
330
1F
100
AcDbEntity
  8
0
  6
Continuous
 62
     7
370
    25
100
AcDbLine
 10
1404.5119266839
 20
-490.4940033135
 30
0.0
 11
1343.7007435019
 21
-455.3884545052
 31
0.0
  0
LINE
  5
C1
330
1F
100
AcDbEntity
  8
0
  6
Continuous
 62
     7
370
    25
100
AcDbLine
 10
893.7373138156
 20
-1234.8324306478
 30
0.0
 11
954.5484969977
 21
-1269.9379794562
 31
0.0
  0
LINE
  5
C2
330
1F
100
AcDbEntity
  8
0
  6
Continuous
 62
     7
370
    25
100
AcDbLine
 10
1318.702775186
 20
-498.6908976242
 30
0.0
 11
1293.2469310632
 21
-483.9955516114
 31
0.0
  0
LINE
  5
C3
330
1F
100
AcDbEntity
  8
0
  6
Continuous
 62
     7
370
    25
100
AcDbLine
 10
893.2794380088
 20
-1176.8346415159
 30
0.0
 11
918.7352821315
 21
-1191.5299875287
 31
0.0
  0
LINE
  5
C4
330
1F
100
AcDbEntity
  8
0
  6
Continuous
 62
     7
370
    25
100
AcDbLine
 10
1270.7487595789
 20
-522.9677504185
 30
0.0
 11
1245.2929154562
 21
-508.2724044057
 31
0.0
  0
LINE
  5
C5
330
1F
100
AcDbEntity
  8
0
  6
Continuous
 62
     7
370
    25
100
AcDbLine
 10
890.3217653704
 20
-1123.167096696
 30
0.0
 11
915.7776094931
 21
-1137.8624427088
 31
0.0
  0
LINE
  5
C6
330
1F
100
AcDbEntity
  8
0
  6
Continuous
 62
     7
370
    25
100
AcDbLine
 10
1225.2945408035
 20
-542.9143589009
 30
0.0
 11
1199.8386966808
 21
-528.2190128881
 31
0.0
  0
LINE
  5
C7
330
1F
100
AcDbEntity
  8
0
  6
Continuous
 62
     7
370
    25
100
AcDbLine
 10
884.8642959004
 20
-1073.829796188
 30
0.0
 11
910.3201400231
 21
-1088.5251422008
 31
0.0
  0
LWPOLYLINE
  5
C8
330
1F
100
AcDbEntity
  8
0
  6
Continuous
 62
     7
370
    25
100
AcDbPolyline
 90
       15
 70
   128
 43
0.0
 10
800.5209771248
 20
-1028.8022677366
 10
800.6450377593
 20
-1018.4710281581
 10
801.017122924
 20
-1008.0046072098
 10
801.6369424781
 20
-997.4111662919
 10
802.5040131049
 20
-986.6989658509
 10
803.6176586889
 20
-975.8763589386
 10
804.9770108427
 20
-964.9517846983
 10
806.5810095845
 20
-953.9337617842
 10
808.4284041641
 20
-942.8308817193
 10
810.517754039
 20
-931.6518021955
 10
812.847429997
 20
-920.4052403227
 10
815.4156154267
 20
-909.0999658315
 10
818.2203077345
 20
-897.7447942349
 10
821.2593199056
 20
-886.3485799542
 10
823.8492625746
 20
-877.2367615811
  0
LWPOLYLINE
  5
C9
330
1F
100
AcDbEntity
  8
0
  6
Continuous
 62
     7
370
    25
100
AcDbPolyline
 90
      185
 70
   128
 43
0.0
 10
999.0808842294
 20
-573.6938002702
 10
1003.6507950718
 20
-568.9617247644
 10
1011.9789927802
 20
-560.5773928728
 10
1020.3904231578
 20
-552.4149312945
 10
1028.8785272241
 20
-544.4807048714
 10
1037.436686211
 20
-536.7809004746
 10
1046.0582267235
 20
-529.3215221799
 10
1054.7364259436
 20
-522.1083865862
 10
1063.4645168727
 20
-515.1471182797
 10
1072.235693608
 20
-508.4431454478
 10
1081.0431166497
 20
-502.0016956472
 10
1089.8799182343
 20
-495.8277917264
 10
1098.7392076897
 20
-489.92624791
 10
1107.6140768085
 20
-484.3016660445
 10
1116.4976052347
 20
-478.9584320096
 10
1125.38286586
 20
-473.9007122983
 10
1134.2629302256
 20
-469.1324507685
 10
1143.1308739243
 20
-464.657365567
 10
1151.9797820004
 20
-460.4789462307
 10
1160.8027543415
 20
-456.6004509652
 10
1169.5929110592
 20
-453.0249041045
 10
1178.3433978538
 20
-449.7550937526
 10
1187.0473913588
 20
-446.793569609
 10
1195.698104462
 20
-444.1426409814
 10
1204.2887915974
 20
-441.804374984
 10
1212.8127540057
 20
-439.7805949264
 10
1221.2633449573
 20
-438.0728788914
 10
1229.6339749358
 20
-436.6825585046
 10
1237.9181167755
 20
-435.610717896
 10
1246.1093107519
 20
-434.8581928546
 10
1254.2011696183
 20
-434.4255701769
 10
1262.1873835865
 20
-434.3131872091
 10
1270.0617252473
 20
-434.5211315838
 10
1277.8180544257
 20
-435.0492411525
 10
1285.4503229697
 20
-435.8971041111
 10
1292.9525794657
 20
-437.0640593216
 10
1300.3189738799
 20
-438.5491968275
 10
1307.5437621195
 20
-440.3513585631
 10
1314.6213105119
 20
-442.469139257
 10
1321.5461001978
 20
-444.9008875275
 10
1328.3127314345
 20
-447.6447071704
 10
1334.9159278065
 20
-450.6984586378
 10
1341.3505403398
 20
-454.0597607061
 10
1347.6115515173
 20
-457.7259923329
 10
1353.6940791907
 20
-461.6942947013
 10
1359.593380388
 20
-465.9615734484
 10
1365.3048550114
 20
-470.5245010785
 10
1370.8240494249
 20
-475.3795195581
 10
1376.1466599267
 20
-480.5228430896
 10
1381.2685361053
 20
-485.9504610641
 10
1386.1856840756
 20
-491.6581411885
 10
1390.8942695936
 20
-497.6414327853
 10
1395.390621046
 20
-503.8956702639
 10
1399.6712323131
 20
-510.415976758
 10
1403.732765503
 20
-517.1972679286
 10
1407.5720535543
 20
-524.234255929
 10
1411.1861027058
 20
-531.5214535276
 10
1414.5720948305
 20
-539.0531783868
 10
1417.7273896337
 20
-546.8235574942
 10
1420.6495267113
 20
-554.826531742
 10
1423.3362274689
 20
-563.0558606514
 10
1425.785396898
 20
-571.5051272395
 10
1427.9951252098
 20
-580.1677430222
 10
1429.9636893249
 20
-589.0369531523
 10
1431.6895542159
 20
-598.1058416866
 10
1433.1713741056
 20
-607.3673369787
 10
1434.4079935152
 20
-616.814217193
 10
1435.3984481662
 20
-626.4391159365
 10
1436.1419657317
 20
-636.2345280027
 10
1436.6379664393
 20
-646.1928152241
 10
1436.8860635224
 20
-656.3062124276
 10
1436.8860635224
 20
-666.5668334904
 10
1436.6379664393
 20
-676.9666774889
 10
1436.1419657317
 20
-687.4976349375
 10
1435.3984481662
 20
-698.1514941124
 10
1434.4079935152
 20
-708.9199474547
 10
1433.1713741056
 20
-719.7945980484
 10
1431.6895542159
 20
-730.7669661681
 10
1429.9636893249
 20
-741.8284958911
 10
1427.9951252098
 20
-752.9705617693
 10
1425.785396898
 20
-764.184475555
 10
1423.3362274689
 20
-775.4614929755
 10
1420.6495267113
 20
-786.7928205517
 10
1417.7273896337
 20
-798.1696224554
 10
1414.5720948305
 20
-809.5830273986
 10
1411.1861027058
 20
-821.0241355515
 10
1407.5720535543
 20
-832.484025482
 10
1403.732765503
 20
-843.9537611128
 10
1399.671232313
 20
-855.424398689
 10
1395.390621046
 20
-866.8869937525
 10
1390.8942695936
 20
-878.3326081164
 10
1386.1856840756
 20
-889.752316835
 10
1381.2685361053
 20
-901.1372151629
 10
1376.1466599267
 20
-912.4784254988
 10
1370.8240494249
 20
-923.7671043082
 10
1365.3048550114
 20
-934.9944490187
 10
1359.593380388
 20
-946.1517048849
 10
1353.6940791907
 20
-957.230171814
 10
1347.6115515173
 20
-968.221211151
 10
1341.3505403398
 20
-979.1162524139
 10
1334.9159278064
 20
-989.9067999772
 10
1328.3127314345
 20
-1000.5844396966
 10
1321.5461001978
 20
-1011.1408454699
 10
1314.6213105119
 20
-1021.5677857293
 10
1307.5437621195
 20
-1031.8571298604
 10
1300.3189738799
 20
-1042.0008545423
 10
1292.9525794657
 20
-1051.9910500035
 10
1285.4503229697
 20
-1061.8199261902
 10
1277.8180544257
 20
-1071.4798188403
 10
1270.0617252473
 20
-1080.9631954602
 10
1262.1873835865
 20
-1090.262661198
 10
1254.2011696183
 20
-1099.3709646101
 10
1246.1093107519
 20
-1108.2810033154
 10
1237.9181167755
 20
-1116.9858295338
 10
1229.6339749358
 20
-1125.4786555037
 10
1221.2633449573
 20
-1133.7528587748
 10
1212.8127540057
 20
-1141.8019873723
 10
1204.2887915974
 20
-1149.6197648278
 10
1195.698104462
 20
-1157.2000950738
 10
1187.0473913588
 20
-1164.5370671966
 10
1178.3433978538
 20
-1171.6249600461
 10
1169.5929110592
 20
-1178.4582466966
 10
1160.8027543415
 20
-1185.0315987569
 10
1151.9797820004
 20
-1191.3398905246
 10
1143.1308739243
 20
-1197.3782029837
 10
1134.2629302256
 20
-1203.1418276396
 10
1125.38286586
 20
-1208.6262701913
 10
1116.4976052347
 20
-1213.8272540355
 10
1107.6140768085
 20
-1218.7407236013
 10
1098.7392076897
 20
-1223.3628475131
 10
1089.8799182343
 20
-1227.6900215776
 10
1081.0431166497
 20
-1231.7188715946
 10
1072.235693608
 20
-1235.4462559882
 10
1063.4645168727
 20
-1238.869268256
 10
1054.7364259436
 20
-1241.9852392361
 10
1046.0582267235
 20
-1244.7917391881
 10
1037.436686211
 20
-1247.2865796877
 10
1028.8785272241
 20
-1249.4678153332
 10
1020.3904231578
 20
-1251.3337452629
 10
1011.9789927802
 20
-1252.8829144806
 10
1003.6507950718
 20
-1254.1141149908
 10
995.4123241107
 20
-1255.0263867404
 10
987.2700040085
 20
-1255.6190183673
 10
979.2301839018
 20
-1255.8915477551
 10
971.2991330002
 20
-1255.8437623938
 10
963.4830356988
 20
-1255.4756995448
 10
955.7879867551
 20
-1254.7876462124
 10
948.2199865368
 20
-1253.7801389201
 10
940.7849363427
 20
-1252.4539632916
 10
933.4886338015
 20
-1250.8101534389
 10
926.3367683504
 20
-1248.8499911554
 10
919.3349167988
 20
-1246.5750049166
 10
912.4885389801
 20
-1243.9869686885
 10
905.8029734936
 20
-1241.0879005438
 10
899.2834335423
 20
-1237.8800610887
 10
892.9350028673
 20
-1234.3659516998
 10
886.7626317839
 20
-1230.548312574
 10
880.7711333213
 20
-1226.4301205915
 10
874.9651794699
 20
-1222.0145869944
 10
869.3492975378
 20
-1217.305154883
 10
863.9278666208
 20
-1212.3054965308
 10
858.7051141876
 20
-1207.019510521
 10
853.6851127836
 20
-1201.4513187066
 10
848.8717768547
 20
-1195.6052629959
 10
844.2688596956
 20
-1189.4859019674
 10
839.8799505226
 20
-1183.0980073147
 10
835.7084716751
 20
-1176.4465601259
 10
831.7576759467
 20
-1169.5367469995
 10
828.0306440492
 20
-1162.3739559999
 10
824.5302822099
 20
-1154.9637724561
 10
821.2593199056
 20
-1147.3119746061
 10
818.2203077345
 20
-1139.424529092
 10
815.4156154267
 20
-1131.3075863064
 10
812.847429997
 20
-1122.9674755971
 10
810.517754039
 20
-1114.4107003315
 10
808.4284041641
 20
-1105.6439328258
 10
806.5810095845
 20
-1096.6740091413
 10
804.9770108427
 20
-1087.5079237549
 10
803.6176586889
 20
-1078.1528241041
 10
802.5040131049
 20
-1068.6160050143
 10
801.6369424781
 20
-1058.9049030102
 10
801.017122924
 20
-1049.0270905168
 10
800.6450377593
 20
-1038.9902699554
 10
800.5209771248
 20
-1028.8022677366
 10
800.5209771248
 20
-1028.8022677366
  0
LWPOLYLINE
  5
CA
330
1F
100
AcDbEntity
  8
0
  6
Continuous
 62
     7
370
    25
100
AcDbPolyline
 90
      114
 70
   128
 43
0.0
 10
1404.5119266839
 20
-490.4940033135
 10
1408.4227346994
 20
-492.8315411413
 10
1414.5052623728
 20
-496.7998435097
 10
1420.40456357
 20
-501.0671222568
 10
1426.1160381934
 20
-505.6300498869
 10
1431.6352326069
 20
-510.4850683664
 10
1436.9578431088
 20
-515.628391898
 10
1442.0797192873
 20
-521.0560098725
 10
1446.9968672576
 20
-526.7636899968
 10
1451.7054527756
 20
-532.7469815937
 10
1456.201804228
 20
-539.0012190723
 10
1460.4824154951
 20
-545.5215255664
 10
1464.543948685
 20
-552.302816737
 10
1468.3832367364
 20
-559.3398047374
 10
1471.9972858878
 20
-566.627002336
 10
1475.3832780125
 20
-574.1587271952
 10
1478.5385728157
 20
-581.9291063026
 10
1481.4607098934
 20
-589.9320805503
 10
1484.147410651
 20
-598.1614094598
 10
1486.59658008
 20
-606.6106760478
 10
1488.8063083919
 20
-615.2732918305
 10
1490.7748725069
 20
-624.1425019607
 10
1492.500737398
 20
-633.211390495
 10
1493.9825572876
 20
-642.472885787
 10
1495.2191766972
 20
-651.9197660013
 10
1496.2096313482
 20
-661.5446647449
 10
1496.9531489138
 20
-671.3400768111
 10
1497.4491496213
 20
-681.2983640324
 10
1497.6972467044
 20
-691.411761236
 10
1497.6972467044
 20
-701.6723822988
 10
1497.4491496213
 20
-712.0722262973
 10
1496.9531489138
 20
-722.6031837459
 10
1496.2096313482
 20
-733.2570429208
 10
1495.2191766972
 20
-744.0254962631
 10
1493.9825572876
 20
-754.9001468568
 10
1492.500737398
 20
-765.8725149764
 10
1490.7748725069
 20
-776.9340446995
 10
1488.8063083919
 20
-788.0761105777
 10
1486.59658008
 20
-799.2900243634
 10
1484.147410651
 20
-810.5670417839
 10
1481.4607098934
 20
-821.8983693601
 10
1478.5385728157
 20
-833.2751712638
 10
1475.3832780125
 20
-844.688576207
 10
1471.9972858878
 20
-856.1296843598
 10
1468.3832367364
 20
-867.5895742904
 10
1464.543948685
 20
-879.0593099212
 10
1460.4824154951
 20
-890.5299474974
 10
1456.201804228
 20
-901.9925425609
 10
1451.7054527756
 20
-913.4381569248
 10
1446.9968672576
 20
-924.8578656433
 10
1442.0797192873
 20
-936.2427639712
 10
1436.9578431088
 20
-947.5839743072
 10
1431.6352326069
 20
-958.8726531165
 10
1426.1160381934
 20
-970.0999978271
 10
1420.40456357
 20
-981.2572536932
 10
1414.5052623728
 20
-992.3357206224
 10
1408.4227346994
 20
-1003.3267599594
 10
1402.1617235219
 20
-1014.2218012222
 10
1395.7271109885
 20
-1025.0123487856
 10
1389.1239146165
 20
-1035.689988505
 10
1382.3572833798
 20
-1046.2463942783
 10
1375.4324936939
 20
-1056.6733345376
 10
1368.3549453015
 20
-1066.9626786688
 10
1361.130157062
 20
-1077.1064033507
 10
1353.7637626478
 20
-1087.0965988119
 10
1346.2615061517
 20
-1096.9254749986
 10
1338.6292376078
 20
-1106.5853676487
 10
1330.8729084293
 20
-1116.0687442686
 10
1322.9985667686
 20
-1125.3682100064
 10
1315.0123528003
 20
-1134.4765134184
 10
1306.9204939339
 20
-1143.3865521238
 10
1298.7292999575
 20
-1152.0913783422
 10
1290.4451581178
 20
-1160.584204312
 10
1282.0745281394
 20
-1168.8584075831
 10
1273.6239371877
 20
-1176.9075361806
 10
1265.0999747794
 20
-1184.7253136362
 10
1256.509287644
 20
-1192.3056438822
 10
1247.8585745409
 20
-1199.642616005
 10
1239.1545810358
 20
-1206.7305088545
 10
1230.4040942413
 20
-1213.563795505
 10
1221.6139375235
 20
-1220.1371475653
 10
1212.7909651824
 20
-1226.445439333
 10
1203.9420571063
 20
-1232.4837517921
 10
1195.0741134076
 20
-1238.247376448
 10
1186.1940490421
 20
-1243.7318189997
 10
1177.3087884167
 20
-1248.9328028439
 10
1168.4252599905
 20
-1253.8462724097
 10
1159.5503908718
 20
-1258.4683963215
 10
1150.6911014164
 20
-1262.795570386
 10
1141.8542998318
 20
-1266.824420403
 10
1133.0468767901
 20
-1270.5518047966
 10
1124.2757000548
 20
-1273.9748170644
 10
1115.5476091257
 20
-1277.0907880445
 10
1106.8694099055
 20
-1279.8972879965
 10
1098.247869393
 20
-1282.392128496
 10
1089.6897104061
 20
-1284.5733641416
 10
1081.2016063398
 20
-1286.4392940713
 10
1072.7901759623
 20
-1287.988463289
 10
1064.4619782539
 20
-1289.2196637992
 10
1056.2235072927
 20
-1290.1319355488
 10
1048.0811871906
 20
-1290.7245671756
 10
1040.0413670838
 20
-1290.9970965635
 10
1032.1103161823
 20
-1290.9493112021
 10
1024.2942188808
 20
-1290.5812483531
 10
1016.5991699371
 20
-1289.8931950208
 10
1009.0311697188
 20
-1288.8856877285
 10
1001.5961195248
 20
-1287.5595121
 10
994.2998169836
 20
-1285.9157022473
 10
987.1479515324
 20
-1283.9555399637
 10
980.1460999809
 20
-1281.680553725
 10
973.2997221621
 20
-1279.0925174969
 10
966.6141566757
 20
-1276.1934493522
 10
960.0946167244
 20
-1272.9856098971
 10
954.5484969977
 20
-1269.9379794562
  0
LWPOLYLINE
  5
CB
330
1F
100
AcDbEntity
  8
0
  6
Continuous
 62
     7
370
    25
100
AcDbPolyline
 90
      108
 70
   128
 43
0.0
 10
1318.702775186
 20
-498.6908976242
 10
1321.6607274614
 20
-500.4497564716
 10
1327.409794657
 20
-504.1753605125
 10
1332.9755631218
 20
-508.2004170352
 10
1338.3531442912
 20
-512.5213907241
 10
1343.5378148906
 20
-517.1344863512
 10
1348.5250210839
 20
-522.0356521103
 10
1353.3103824734
 20
-527.2205831751
 10
1357.8896959469
 20
-532.6847254809
 10
1362.25893937
 20
-538.4232797241
 10
1366.4142751182
 20
-544.4312055775
 10
1370.352053448
 20
-550.7032261178
 10
1374.0688157025
 20
-557.2338324602
 10
1377.561297349
 20
-564.0172885968
 10
1380.8264308468
 20
-571.0476364352
 10
1383.861348341
 20
-578.3187010311
 10
1386.6633841816
 20
-585.8240960122
 10
1389.2300772649
 20
-593.5572291877
 10
1391.5591731952
 20
-601.511308338
 10
1393.6486262647
 20
-609.6793471809
 10
1395.4966012504
 20
-618.0541715073
 10
1397.1014750259
 20
-626.6284254831
 10
1398.4618379874
 20
-635.3945781097
 10
1399.5764952912
 20
-644.3449298387
 10
1400.444467904
 20
-653.4716193347
 10
1401.0649934618
 20
-662.76663038
 10
1401.4375269403
 20
-672.2217989156
 10
1401.5617411334
 20
-681.8288202119
 10
1401.4375269403
 20
-691.5792561629
 10
1401.0649934618
 20
-701.4645426975
 10
1400.444467904
 20
-711.475997302
 10
1399.5764952912
 20
-721.6048266454
 10
1398.4618379874
 20
-731.8421343039
 10
1397.1014750259
 20
-742.1789285737
 10
1395.4966012504
 20
-752.6061303696
 10
1393.6486262647
 20
-763.114581199
 10
1391.5591731952
 20
-773.6950512058
 10
1389.2300772649
 20
-784.3382472778
 10
1386.6633841816
 20
-795.0348212088
 10
1383.861348341
 20
-805.7753779091
 10
1380.8264308468
 20
-816.5504836581
 10
1377.561297349
 20
-827.3506743896
 10
1374.0688157025
 20
-838.1664640048
 10
1370.352053448
 20
-848.9883527036
 10
1366.4142751182
 20
-859.8068353294
 10
1362.25893937
 20
-870.6124097169
 10
1357.8896959469
 20
-881.3955850385
 10
1353.3103824734
 20
-892.1468901405
 10
1348.5250210839
 20
-902.8568818614
 10
1343.5378148906
 20
-913.5161533265
 10
1338.3531442912
 20
-924.1153422101
 10
1332.9755631218
 20
-934.6451389587
 10
1327.409794657
 20
-945.0962949675
 10
1321.6607274614
 20
-955.4596307043
 10
1315.7334110959
 20
-965.7260437717
 10
1309.6330516824
 20
-975.8865169021
 10
1303.3650073312
 20
-985.9321258778
 10
1296.9347834347
 20
-995.8540473693
 10
1290.3480278321
 20
-1005.6435666852
 10
1283.6105258485
 20
-1015.2920854267
 10
1276.7281952138
 20
-1024.7911290394
 10
1269.7070808647
 20
-1034.132354257
 10
1262.5533496352
 20
-1043.3075564292
 10
1255.2732848407
 20
-1052.3086767285
 10
1247.8732807584
 20
-1061.1278092281
 10
1240.3598370116
 20
-1069.7572078458
 10
1232.7395528606
 20
-1078.1892931481
 10
1225.0191214067
 20
-1086.4166590069
 10
1217.2053237131
 20
-1094.4320791048
 10
1209.3050228492
 20
-1102.228513282
 10
1201.3251578623
 20
-1109.7991137201
 10
1193.2727376832
 20
-1117.1372309564
 10
1185.1548349699
 20
-1124.2364197245
 10
1176.9785798953
 20
-1131.0904446153
 10
1168.7511538848
 20
-1137.693285554
 10
1160.4797833088
 20
-1144.0391430871
 10
1152.1717331351
 20
-1150.1224434767
 10
1143.8343005485
 20
-1155.9378435959
 10
1135.4748085409
 20
-1161.480235622
 10
1127.1005994797
 20
-1166.7447515224
 10
1118.7190286588
 20
-1171.7267673308
 10
1110.3374578378
 20
-1176.4219072082
 10
1101.9632487766
 20
-1180.8260472867
 10
1093.603756769
 20
-1184.9353192912
 10
1085.2663241824
 20
-1188.7461139371
 10
1076.9582740087
 20
-1192.2550841008
 10
1068.6869034327
 20
-1195.459147759
 10
1060.4594774222
 20
-1198.3554906963
 10
1052.2832223476
 20
-1200.9415689763
 10
1044.1653196343
 20
-1203.2151111768
 10
1036.1128994552
 20
-1205.1741203844
 10
1028.1330344683
 20
-1206.8168759484
 10
1020.2327336044
 20
-1208.1419349922
 10
1012.4189359108
 20
-1209.1481336808
 10
1004.6985044569
 20
-1209.8345882427
 10
997.0782203059
 20
-1210.2006957463
 10
989.5647765591
 20
-1210.2461346295
 10
982.1647724768
 20
-1209.9708649822
 10
974.8847076823
 20
-1209.375128581
 10
967.7309764528
 20
-1208.4594486774
 10
960.7098621037
 20
-1207.2246295377
 10
953.827531469
 20
-1205.6717557368
 10
947.0900294854
 20
-1203.8021912058
 10
940.5032738828
 20
-1201.6175780336
 10
934.0730499863
 20
-1199.119835025
 10
927.8050056351
 20
-1196.3111560149
 10
921.7046462216
 20
-1193.1940079419
 10
918.7352821315
 20
-1191.5299875287
  0
ARC
  5
CC
330
1F
100
AcDbEntity
  8
0
  6
Continuous
 62
     7
370
    25
100
AcDbCircle
 10
1267.8494597362
 20
-996.9386065235
 30
0.0
 40
457.4404754723026
100
AcDbArc
 50
167.5428227199
 51
179.5939405415
  0
LWPOLYLINE
  5
CD
330
1F
100
AcDbEntity
  8
0
  6
Continuous
 62
     7
370
    25
100
AcDbPolyline
 90
      171
 70
   128
 43
0.0
 10
1015.9544658205
 20
-560.8653656631
 10
1018.7094755116
 20
-558.3883081838
 10
1026.8273782249
 20
-551.2891194157
 10
1035.0036332995
 20
-544.4350945248
 10
1043.23105931
 20
-537.8322535861
 10
1051.502429886
 20
-531.4863960531
 10
1059.8104800597
 20
-525.4030956635
 10
1068.1479126463
 20
-519.5876955442
 10
1076.5074046539
 20
-514.0453035182
 10
1084.8816137151
 20
-508.7807876178
 10
1093.263184536
 20
-503.7987718094
 10
1101.644755357
 20
-499.1036319319
 10
1110.0189644182
 20
-494.6994918534
 10
1118.3784564258
 20
-490.5902198489
 10
1126.7158890124
 20
-486.779425203
 10
1135.0239391861
 20
-483.2704550393
 10
1143.2953097621
 20
-480.0663913811
 10
1151.5227357725
 20
-477.1700484439
 10
1159.6989908472
 20
-474.5839701638
 10
1167.8168935605
 20
-472.3104279633
 10
1175.8693137396
 20
-470.3514187557
 10
1183.8491787265
 20
-468.7086631917
 10
1191.7494795904
 20
-467.3836041479
 10
1199.563277284
 20
-466.3774054593
 10
1207.2837087379
 20
-465.6909508974
 10
1214.9039928889
 20
-465.3248433938
 10
1222.4174366357
 20
-465.2794045106
 10
1229.817440718
 20
-465.554674158
 10
1237.0975055125
 20
-466.1504105591
 10
1244.251236742
 20
-467.0660904628
 10
1251.2723510911
 20
-468.3009096025
 10
1258.1546817258
 20
-469.8537834033
 10
1264.8921837094
 20
-471.7233479343
 10
1271.478939312
 20
-473.9079611065
 10
1277.9091632085
 20
-476.4057041152
 10
1284.1772075597
 20
-479.2143831253
 10
1290.2775669732
 20
-482.3315311982
 10
1296.2048833387
 20
-485.7544104588
 10
1301.9539505342
 20
-489.4800144997
 10
1307.519718999
 20
-493.5050710224
 10
1312.8973001685
 20
-497.8260447113
 10
1318.0819707679
 20
-502.4391403384
 10
1323.0691769612
 20
-507.3403060975
 10
1327.8545383506
 20
-512.5252371623
 10
1332.4338518242
 20
-517.9893794681
 10
1336.8030952473
 20
-523.7279337113
 10
1340.9584309955
 20
-529.7358595647
 10
1344.8962093253
 20
-536.007880105
 10
1348.6129715797
 20
-542.5384864474
 10
1352.1054532263
 20
-549.321942584
 10
1355.3705867241
 20
-556.3522904224
 10
1358.4055042183
 20
-563.6233550182
 10
1361.2075400588
 20
-571.1287499994
 10
1363.7742331422
 20
-578.8618831749
 10
1366.1033290725
 20
-586.8159623252
 10
1368.192782142
 20
-594.9840011681
 10
1370.0407571277
 20
-603.3588254945
 10
1371.6456309032
 20
-611.9330794703
 10
1373.0059938646
 20
-620.6992320969
 10
1374.1206511685
 20
-629.6495838259
 10
1374.9886237812
 20
-638.7762733219
 10
1375.609149339
 20
-648.0712843672
 10
1375.9816828176
 20
-657.5264529028
 10
1376.1058970107
 20
-667.1334741991
 10
1375.9816828176
 20
-676.8839101501
 10
1375.609149339
 20
-686.7691966847
 10
1374.9886237812
 20
-696.7806512892
 10
1374.1206511685
 20
-706.9094806326
 10
1373.0059938646
 20
-717.1467882911
 10
1371.6456309032
 20
-727.4835825609
 10
1370.0407571277
 20
-737.9107843568
 10
1368.192782142
 20
-748.4192351862
 10
1366.1033290725
 20
-758.999705193
 10
1363.7742331422
 20
-769.642901265
 10
1361.2075400588
 20
-780.3394751959
 10
1358.4055042182
 20
-791.0800318963
 10
1355.3705867241
 20
-801.8551376453
 10
1352.1054532263
 20
-812.6553283768
 10
1348.6129715797
 20
-823.4711179919
 10
1344.8962093253
 20
-834.2930066908
 10
1340.9584309955
 20
-845.1114893166
 10
1336.8030952473
 20
-855.9170637041
 10
1332.4338518242
 20
-866.7002390257
 10
1327.8545383506
 20
-877.4515441276
 10
1323.0691769612
 20
-888.1615358485
 10
1318.0819707679
 20
-898.8208073137
 10
1312.8973001685
 20
-909.4199961973
 10
1307.519718999
 20
-919.9497929458
 10
1301.9539505342
 20
-930.4009489547
 10
1296.2048833387
 20
-940.7642846915
 10
1290.2775669732
 20
-951.0306977589
 10
1284.1772075597
 20
-961.1911708893
 10
1277.9091632085
 20
-971.236779865
 10
1271.478939312
 20
-981.1587013564
 10
1264.8921837094
 20
-990.9482206724
 10
1258.1546817258
 20
-1000.5967394139
 10
1251.2723510911
 20
-1010.0957830266
 10
1244.251236742
 20
-1019.4370082441
 10
1237.0975055125
 20
-1028.6122104164
 10
1229.817440718
 20
-1037.6133307157
 10
1222.4174366357
 20
-1046.4324632152
 10
1214.9039928889
 20
-1055.061861833
 10
1207.2837087379
 20
-1063.4939471353
 10
1199.563277284
 20
-1071.7213129941
 10
1191.7494795904
 20
-1079.736733092
 10
1183.8491787264
 20
-1087.5331672692
 10
1175.8693137396
 20
-1095.1037677073
 10
1167.8168935605
 20
-1102.4418849436
 10
1159.6989908472
 20
-1109.5410737117
 10
1151.5227357725
 20
-1116.3950986025
 10
1143.2953097621
 20
-1122.9979395412
 10
1135.0239391861
 20
-1129.3437970743
 10
1126.7158890124
 20
-1135.4270974639
 10
1118.3784564258
 20
-1141.2424975831
 10
1110.0189644182
 20
-1146.7848896092
 10
1101.644755357
 20
-1152.0494055096
 10
1093.263184536
 20
-1157.031421318
 10
1084.8816137151
 20
-1161.7265611954
 10
1076.5074046539
 20
-1166.1307012739
 10
1068.1479126463
 20
-1170.2399732784
 10
1059.8104800597
 20
-1174.0507679243
 10
1051.502429886
 20
-1177.559738088
 10
1043.23105931
 20
-1180.7638017462
 10
1035.0036332995
 20
-1183.6601446834
 10
1026.8273782249
 20
-1186.2462229635
 10
1018.7094755116
 20
-1188.519765164
 10
1010.6570553325
 20
-1190.4787743716
 10
1002.6771903456
 20
-1192.1215299356
 10
994.7768894817
 20
-1193.4465889794
 10
986.9630917881
 20
-1194.452787668
 10
979.2426603342
 20
-1195.1392422299
 10
971.6223761832
 20
-1195.5053497335
 10
964.1089324364
 20
-1195.5507886167
 10
956.7089283541
 20
-1195.2755189693
 10
949.4288635595
 20
-1194.6797825682
 10
942.2751323301
 20
-1193.7641026646
 10
935.254017981
 20
-1192.5292835249
 10
928.3716873463
 20
-1190.976409724
 10
921.6341853627
 20
-1189.106845193
 10
915.0474297601
 20
-1186.9222320208
 10
908.6172058636
 20
-1184.4244890122
 10
902.3491615124
 20
-1181.6158100021
 10
896.2488020989
 20
-1178.4986619291
 10
890.3214857334
 20
-1175.0757826686
 10
884.5724185378
 20
-1171.3501786276
 10
879.006650073
 20
-1167.3251221049
 10
873.6290689036
 20
-1163.0041484161
 10
868.4443983042
 20
-1158.3910527889
 10
863.4571921109
 20
-1153.4898870299
 10
858.6718307214
 20
-1148.304955965
 10
854.0925172479
 20
-1142.8408136592
 10
849.7232738248
 20
-1137.1022594161
 10
845.5679380766
 20
-1131.0943335626
 10
841.6301597468
 20
-1124.8223130223
 10
837.9133974923
 20
-1118.2917066799
 10
834.4209158458
 20
-1111.5082505433
 10
831.155782348
 20
-1104.4779027049
 10
828.1208648538
 20
-1097.2068381091
 10
825.3188290132
 20
-1089.7014431279
 10
822.7521359299
 20
-1081.9683099524
 10
820.4230399995
 20
-1074.0142308021
 10
818.3335869301
 20
-1065.8461919593
 10
816.4856119444
 20
-1057.4713676329
 10
814.8807381689
 20
-1048.897113657
 10
813.5203752074
 20
-1040.1309610304
 10
812.4057179036
 20
-1031.1806093014
 10
811.5377452908
 20
-1022.0539198055
 10
810.917219733
 20
-1012.7589087602
 10
810.5446862545
 20
-1003.3037402245
 10
810.4204720614
 20
-993.6967189282
 10
810.4204720614
 20
-993.6967189282
  0
LWPOLYLINE
  5
CE
330
1F
100
AcDbEntity
  8
0
  6
Continuous
 62
     7
370
    25
100
AcDbPolyline
 90
      102
 70
   128
 43
0.0
 10
1270.7487595789
 20
-522.9677504185
 10
1270.763184536
 20
-522.9760791225
 10
1276.2510087373
 20
-526.3474435656
 10
1281.5582460485
 20
-530.0188860716
 10
1286.6796588671
 20
-533.9867833702
 10
1291.610192977
 20
-538.2472196256
 10
1296.3449825363
 20
-542.7959903018
 10
1300.8793548793
 20
-547.6286063111
 10
1305.2088351281
 20
-552.7402984451
 10
1309.3291506081
 20
-558.1260220808
 10
1313.2362350657
 20
-563.7804621591
 10
1316.92623268
 20
-569.6980384303
 10
1320.395501869
 20
-575.8729109612
 10
1323.6406188827
 20
-582.2989858981
 10
1326.6583811826
 20
-588.9699214807
 10
1329.4458106016
 20
-595.8791343011
 10
1332.0001562832
 20
-603.0198058004
 10
1334.3188973969
 20
-610.3848889979
 10
1336.3997456249
 20
-617.9671154458
 10
1338.2406474214
 20
-625.7590024018
 10
1339.8397860385
 20
-633.7528602143
 10
1341.1955833195
 20
-641.9407999108
 10
1342.3067012561
 20
-650.3147409833
 10
1343.1720433091
 20
-658.866419363
 10
1343.7907554904
 20
-667.5873955758
 10
1344.1622272057
 20
-676.469063071
 10
1344.2860918573
 20
-685.5026567151
 10
1344.1622272057
 20
-694.6792614419
 10
1343.7907554904
 20
-703.9898210504
 10
1343.1720433091
 20
-713.4251471423
 10
1342.3067012561
 20
-722.9759281898
 10
1341.1955833195
 20
-732.6327387253
 10
1339.8397860385
 20
-742.3860486426
 10
1338.2406474214
 20
-752.2262326023
 10
1336.3997456249
 20
-762.1435795309
 10
1334.3188973969
 20
-772.1283022042
 10
1332.0001562832
 20
-782.1705469066
 10
1329.4458106016
 20
-792.2604031548
 10
1326.6583811826
 20
-802.3879134789
 10
1323.6406188827
 20
-812.543083249
 10
1320.395501869
 20
-822.7158905385
 10
1316.92623268
 20
-832.8962960148
 10
1313.2362350657
 20
-843.0742528468
 10
1309.3291506081
 20
-853.23971662
 10
1305.2088351281
 20
-863.3826552487
 10
1300.8793548793
 20
-873.4930588773
 10
1296.3449825363
 20
-883.560949758
 10
1291.610192977
 20
-893.5763920979
 10
1286.6796588671
 20
-903.5295018646
 10
1281.5582460485
 20
-913.4104565406
 10
1276.2510087373
 20
-923.2095048164
 10
1270.763184536
 20
-932.9169762145
 10
1265.1001892646
 20
-942.5232906325
 10
1259.2676116156
 20
-952.018967798
 10
1253.271207639
 20
-961.394636624
 10
1247.1168950617
 20
-970.6410444573
 10
1240.810747447
 20
-979.7490662098
 10
1234.3589882014
 20
-988.7097133635
 10
1227.7679844323
 20
-997.5141428415
 10
1221.0442406646
 20
-1006.153665735
 10
1214.1943924217
 20
-1014.6197558779
 10
1207.2251996769
 20
-1022.9040582613
 10
1200.1435401819
 20
-1030.9983972791
 10
1192.9564026797
 20
-1038.8947847957
 10
1185.6708800073
 20
-1046.5854280301
 10
1178.294162096
 20
-1054.0627372459
 10
1170.8335288757
 20
-1061.3193332417
 10
1163.2963430908
 20
-1068.3480546332
 10
1155.6900430335
 20
-1075.1419649212
 10
1148.0221352039
 20
-1081.6943593363
 10
1140.300186901
 20
-1087.9987714564
 10
1132.5318187557
 20
-1094.0489795878
 10
1124.7246972093
 20
-1099.8390129055
 10
1116.8865269483
 20
-1105.3631573458
 10
1109.0250433005
 20
-1110.615961245
 10
1101.148004601
 20
-1115.5922407198
 10
1093.263184536
 20
-1120.2870847831
 10
1085.3783644711
 20
-1124.6958601908
 10
1077.5013257716
 20
-1128.8142160137
 10
1069.6398421237
 20
-1132.6380879318
 10
1061.8016718628
 20
-1136.1637022453
 10
1053.9945503164
 20
-1139.3875795985
 10
1046.2261821711
 20
-1142.3065384136
 10
1038.5042338682
 20
-1144.9176980308
 10
1030.8363260385
 20
-1147.2184815506
 10
1023.2300259813
 20
-1149.2066183776
 10
1015.6928401964
 20
-1150.8801464607
 10
1008.2322069761
 20
-1152.2374142298
 10
1000.8554890648
 20
-1153.2770822255
 10
993.5699663924
 20
-1153.9981244209
 10
986.3828288902
 20
-1154.3998292344
 10
979.3011693952
 20
-1154.481800232
 10
972.3319766503
 20
-1154.243956518
 10
965.4821284075
 20
-1153.6865328157
 10
958.7583846398
 20
-1152.8100792348
 10
952.1673808707
 20
-1151.6154607292
 10
945.715621625
 20
-1150.1038562431
 10
939.4094740104
 20
-1148.2767575478
 10
933.255161433
 20
-1146.135967769
 10
927.2587574565
 20
-1143.6835996077
 10
921.4261798075
 20
-1140.9220732553
 10
915.7776094931
 20
-1137.8624427088
  0
ARC
  5
CF
330
1F
100
AcDbEntity
  8
0
  6
Continuous
 62
     7
370
    25
100
AcDbCircle
 10
1195.0369210794
 20
-961.7390555978
 30
0.0
 40
378.2541074716613
100
AcDbArc
 50
172.3415435639
 51
179.8323381198
  0
LWPOLYLINE
  5
D0
330
1F
100
AcDbEntity
  8
0
  6
Continuous
 62
     7
370
    25
100
AcDbPolyline
 90
      157
 70
   128
 43
0.0
 10
1026.7583950783
 20
-553.4468069202
 10
1028.5387061937
 20
-552.0858675268
 10
1036.34582774
 20
-546.295834209
 10
1044.183998001
 20
-540.7716897687
 10
1052.0454816489
 20
-535.5188858696
 10
1059.9225203484
 20
-530.5426063948
 10
1067.8073404133
 20
-525.8477623314
 10
1075.6921604783
 20
-521.4389869238
 10
1083.5691991778
 20
-517.3206311009
 10
1091.4306828256
 20
-513.4967591827
 10
1099.2688530866
 20
-509.9711448692
 10
1107.075974633
 20
-506.747267516
 10
1114.8443427783
 20
-503.8283087009
 10
1122.5662910812
 20
-501.2171490837
 10
1130.2341989108
 20
-498.9163655639
 10
1137.8404989681
 20
-496.9282287369
 10
1145.377684753
 20
-495.2547006538
 10
1152.8383179732
 20
-493.8974328847
 10
1160.2150358846
 20
-492.8577648891
 10
1167.500558557
 20
-492.1367226937
 10
1174.6876960592
 20
-491.7350178801
 10
1181.7693555542
 20
-491.6530468826
 10
1188.738548299
 20
-491.8908905965
 10
1195.5883965419
 20
-492.4483142989
 10
1202.3121403096
 20
-493.3247678798
 10
1208.9031440787
 20
-494.5193863854
 10
1215.3549033243
 20
-496.0309908714
 10
1221.661050939
 20
-497.8580895667
 10
1227.8153635163
 20
-499.9988793456
 10
1233.8117674929
 20
-502.4512475068
 10
1239.6443451419
 20
-505.2127738592
 10
1245.3073404133
 20
-508.2807331097
 10
1250.7951646146
 20
-511.6520975528
 10
1256.1024019258
 20
-515.3235400588
 10
1261.2238147444
 20
-519.2914373574
 10
1266.1543488543
 20
-523.5518736128
 10
1270.8891384136
 20
-528.100644289
 10
1275.4235107566
 20
-532.9332602983
 10
1279.7529910053
 20
-538.0449524323
 10
1283.8733064854
 20
-543.4306760679
 10
1287.7803909429
 20
-549.0851161462
 10
1291.4703885573
 20
-555.0026924175
 10
1294.9396577462
 20
-561.1775649484
 10
1298.18477476
 20
-567.6036398853
 10
1301.2025370599
 20
-574.2745754679
 10
1303.9899664788
 20
-581.1837882883
 10
1306.5443121605
 20
-588.3244597876
 10
1308.8630532742
 20
-595.6895429851
 10
1310.9439015022
 20
-603.271769433
 10
1312.7848032987
 20
-611.063656389
 10
1314.3839419158
 20
-619.0575142015
 10
1315.7397391968
 20
-627.245453898
 10
1316.8508571334
 20
-635.6193949705
 10
1317.7161991864
 20
-644.1710733502
 10
1318.3349113677
 20
-652.892049563
 10
1318.706383083
 20
-661.7737170582
 10
1318.8302477345
 20
-670.8073107023
 10
1318.706383083
 20
-679.9839154291
 10
1318.3349113677
 20
-689.2944750376
 10
1317.7161991864
 20
-698.7298011294
 10
1316.8508571334
 20
-708.280582177
 10
1315.7397391968
 20
-717.9373927125
 10
1314.3839419158
 20
-727.6907026298
 10
1312.7848032987
 20
-737.5308865895
 10
1310.9439015022
 20
-747.448233518
 10
1308.8630532742
 20
-757.4329561914
 10
1306.5443121605
 20
-767.4752008937
 10
1303.9899664788
 20
-777.565057142
 10
1301.2025370599
 20
-787.6925674661
 10
1298.18477476
 20
-797.8477372362
 10
1294.9396577462
 20
-808.0205445257
 10
1291.4703885573
 20
-818.200950002
 10
1287.7803909429
 20
-828.378906834
 10
1283.8733064854
 20
-838.5443706071
 10
1279.7529910053
 20
-848.6873092359
 10
1275.4235107566
 20
-858.7977128645
 10
1270.8891384136
 20
-868.8656037451
 10
1266.1543488543
 20
-878.8810460851
 10
1261.2238147444
 20
-888.8341558518
 10
1256.1024019258
 20
-898.7151105278
 10
1250.7951646146
 20
-908.5141588036
 10
1245.3073404133
 20
-918.2216302017
 10
1239.6443451419
 20
-927.8279446197
 10
1233.8117674929
 20
-937.3236217852
 10
1227.8153635163
 20
-946.6992906112
 10
1221.661050939
 20
-955.9456984445
 10
1215.3549033243
 20
-965.053720197
 10
1208.9031440787
 20
-974.0143673506
 10
1202.3121403096
 20
-982.8187968287
 10
1195.5883965419
 20
-991.4583197222
 10
1188.738548299
 20
-999.9244098651
 10
1181.7693555542
 20
-1008.2087122485
 10
1174.6876960592
 20
-1016.3030512662
 10
1167.500558557
 20
-1024.1994387829
 10
1160.2150358846
 20
-1031.8900820173
 10
1152.8383179732
 20
-1039.3673912331
 10
1145.377684753
 20
-1046.6239872289
 10
1137.8404989681
 20
-1053.6527086204
 10
1130.2341989108
 20
-1060.4466189084
 10
1122.5662910812
 20
-1066.9990133235
 10
1114.8443427783
 20
-1073.3034254435
 10
1107.075974633
 20
-1079.353633575
 10
1099.2688530866
 20
-1085.1436668927
 10
1091.4306828256
 20
-1090.667811333
 10
1083.5691991778
 20
-1095.9206152322
 10
1075.6921604783
 20
-1100.8968947069
 10
1067.8073404133
 20
-1105.5917387703
 10
1059.9225203484
 20
-1110.000514178
 10
1052.0454816489
 20
-1114.1188700009
 10
1044.183998001
 20
-1117.942741919
 10
1036.34582774
 20
-1121.4683562325
 10
1028.5387061937
 20
-1124.6922335857
 10
1020.7703380483
 20
-1127.6111924008
 10
1013.0483897455
 20
-1130.222352018
 10
1005.3804819158
 20
-1132.5231355378
 10
997.7741818586
 20
-1134.5112723648
 10
990.2369960737
 20
-1136.1848004479
 10
982.7763628534
 20
-1137.542068217
 10
975.3996449421
 20
-1138.5817362127
 10
968.1141222697
 20
-1139.302778408
 10
960.9269847675
 20
-1139.7044832216
 10
953.8453252725
 20
-1139.7864542191
 10
946.8761325276
 20
-1139.5486105052
 10
940.0262842847
 20
-1138.9911868029
 10
933.3025405171
 20
-1138.1147332219
 10
926.7115367479
 20
-1136.9201147164
 10
920.2597775023
 20
-1135.4085102303
 10
913.9536298877
 20
-1133.581411535
 10
907.7993173103
 20
-1131.4406217562
 10
901.8029133338
 20
-1128.9882535949
 10
895.9703356848
 20
-1126.2267272425
 10
890.3073404133
 20
-1123.158767992
 10
884.819516212
 20
-1119.7874035489
 10
879.5122789008
 20
-1116.1159610429
 10
874.3908660822
 20
-1112.1480637443
 10
869.4603319723
 20
-1107.8876274889
 10
864.725542413
 20
-1103.3388568127
 10
860.19117007
 20
-1098.5062408034
 10
855.8616898213
 20
-1093.3945486694
 10
851.7413743412
 20
-1088.0088250338
 10
847.8342898837
 20
-1082.3543849555
 10
844.1442922694
 20
-1076.4368086842
 10
840.6750230804
 20
-1070.2619361533
 10
837.4299060666
 20
-1063.8358612165
 10
834.4121437667
 20
-1057.1649256338
 10
831.6247143478
 20
-1050.2557128134
 10
829.0703686661
 20
-1043.1150413141
 10
826.7516275525
 20
-1035.7499581166
 10
824.6707793244
 20
-1028.1677316688
 10
822.8298775279
 20
-1020.3758447127
 10
821.2307389108
 20
-1012.3819869002
 10
819.8749416299
 20
-1004.1940472037
 10
818.7638236932
 20
-995.8201061312
 10
817.8984816402
 20
-987.2684277515
 10
817.279769459
 20
-978.5474515387
 10
816.9082977437
 20
-969.6657840435
 10
816.7844330921
 20
-960.6321903994
  0
LWPOLYLINE
  5
D1
330
1F
100
AcDbEntity
  8
0
  6
Continuous
 62
     7
370
    25
100
AcDbPolyline
 90
       96
 70
   128
 43
0.0
 10
1225.2945408035
 20
-542.9143589009
 10
1227.9171473378
 20
-544.4796347962
 10
1233.0019188666
 20
-547.8221712399
 10
1237.902189107
 20
-551.4639151333
 10
1242.6124850818
 20
-555.4007991126
 10
1247.1275459908
 20
-559.6284261804
 10
1251.4423290864
 20
-564.1420746159
 10
1255.5520153058
 20
-568.9367032492
 10
1259.4520146534
 20
-574.0069570913
 10
1263.1379713271
 20
-579.3471733148
 10
1266.6057685829
 20
-584.9513875789
 10
1269.8515333334
 20
-590.8133406906
 10
1272.8716404731
 20
-596.9264855955
 10
1275.6627169272
 20
-603.2839946898
 10
1278.2216454191
 20
-609.8787674462
 10
1280.5455679518
 20
-616.7034383442
 10
1282.6318890001
 20
-623.7503850961
 10
1284.4782784093
 20
-631.0117371608
 10
1286.0826739977
 20
-638.4793845334
 10
1287.44328386
 20
-646.1449868038
 10
1288.5585883683
 20
-653.9999824712
 10
1289.4273418698
 20
-662.0355985066
 10
1290.0485740774
 20
-670.2428601512
 10
1290.421591154
 20
-678.6126009398
 10
1290.5459764871
 20
-687.1354729388
 10
1290.421591154
 20
-695.8019571864
 10
1290.0485740774
 20
-704.6023743245
 10
1289.4273418698
 20
-713.5268954087
 10
1288.5585883683
 20
-722.5655528866
 10
1287.44328386
 20
-731.7082517298
 10
1286.0826739977
 20
-740.944780709
 10
1284.4782784093
 20
-750.2648237987
 10
1282.6318890001
 20
-759.6579716986
 10
1280.5455679518
 20
-769.1137334599
 10
1278.2216454191
 20
-778.6215482018
 10
1275.6627169272
 20
-788.1707969072
 10
1272.8716404731
 20
-797.7508142824
 10
1269.8515333334
 20
-807.3509006691
 10
1266.6057685829
 20
-816.9603339944
 10
1263.1379713271
 20
-826.5683817461
 10
1259.4520146534
 20
-836.1643129595
 10
1255.5520153058
 20
-845.7374102027
 10
1251.4423290864
 20
-855.276981546
 10
1247.1275459908
 20
-864.7723725043
 10
1242.6124850818
 20
-874.2129779362
 10
1237.902189107
 20
-883.5882538886
 10
1233.0019188666
 20
-892.8877293734
 10
1227.9171473378
 20
-902.1010180617
 10
1222.6535535624
 20
-911.2178298844
 10
1217.2170163036
 20
-920.2279825247
 10
1211.6136074808
 20
-929.1214127906
 10
1205.8495853872
 20
-937.8881878539
 10
1199.9313877009
 20
-946.5185163445
 10
1193.8656242944
 20
-955.0027592854
 10
1187.6590698523
 20
-963.3314408585
 10
1181.3186563047
 20
-971.4952589883
 10
1174.8514650855
 20
-979.4850957304
 10
1168.264719223
 20
-987.2920274555
 10
1161.5657752726
 20
-994.907334816
 10
1154.7621151011
 20
-1002.3225124842
 10
1147.8613375295
 20
-1009.5292786518
 10
1140.8711498468
 20
-1016.5195842796
 10
1133.7993592017
 20
-1023.2856220872
 10
1126.6538638831
 20
-1029.8198352727
 10
1119.4426444983
 20
-1036.1149259529
 10
1112.1737550604
 20
-1042.1638633138
 10
1104.8553139922
 20
-1047.9598914635
 10
1097.4954950597
 20
-1053.4965369772
 10
1090.1025182425
 20
-1058.7676161276
 10
1082.6846405535
 20
-1063.7672417912
 10
1075.2501468164
 20
-1068.4898300233
 10
1067.8073404133
 20
-1072.9301062949
 10
1060.3645340102
 20
-1077.0831113832
 10
1052.9300402732
 20
-1080.944206911
 10
1045.5121625841
 20
-1084.5090805267
 10
1038.1191857669
 20
-1087.7737507209
 10
1030.7593668344
 20
-1090.734571273
 10
1023.4409257663
 20
-1093.3882353239
 10
1016.1720363283
 20
-1095.731779069
 10
1008.9608169435
 20
-1097.7625850688
 10
1001.8153216249
 20
-1099.4783851717
 10
994.7435309798
 20
-1100.8772630478
 10
987.7533432972
 20
-1101.9576563288
 10
980.8525657256
 20
-1102.718358353
 10
974.048905554
 20
-1103.1585195133
 10
967.3499616037
 20
-1103.2776482057
 10
960.7632157411
 20
-1103.0756113788
 10
954.2960245219
 20
-1102.5526346818
 10
947.9556109743
 20
-1101.7093022132
 10
941.7490565322
 20
-1100.5465558677
 10
935.6832931257
 20
-1099.0656942848
 10
929.7650954394
 20
-1097.2683713982
 10
924.0010733459
 20
-1095.1565945884
 10
918.397664523
 20
-1092.732722441
 10
912.9611272643
 20
-1089.9994621122
 10
910.3201400231
 20
-1088.5251422008
  0
LWPOLYLINE
  5
D2
330
1F
100
AcDbEntity
  8
0
  6
Continuous
 62
     7
370
    25
100
AcDbPolyline
 90
       42
 70
   128
 43
0.0
 10
904.2392492902
 20
-976.9486376451
 10
905.0929974415
 20
-971.6126394501
 10
906.9429937636
 20
-961.1387858951
 10
909.0346853946
 20
-950.5931804071
 10
911.3662176913
 20
-939.9851734736
 10
913.9355233504
 20
-929.3241709116
 10
916.7403242419
 20
-918.619625528
 10
919.778133429
 20
-907.8810287377
 10
923.0462573728
 20
-897.1179021482
 10
926.5417983211
 20
-886.3397891165
 10
930.2616568775
 20
-875.5562462882
 10
934.2025347496
 20
-864.7768351229
 10
938.3609376733
 20
-854.0111134169
 10
942.7331785115
 20
-843.2686268286
 10
947.315380523
 20
-832.5589004142
 10
952.1034807999
 20
-821.8914301827
 10
957.0932338703
 20
-811.2756746755
 10
962.2802154627
 20
-800.7210465801
 10
967.6598264283
 20
-790.2369043842
 10
973.2272968196
 20
-779.8325440775
 10
978.9776901196
 20
-769.5171909093
 10
984.9059076185
 20
-759.2999912092
 10
991.0066929349
 20
-749.1900042765
 10
997.2746366767
 20
-739.1961943481
 10
1003.704181237
 20
-729.3274226503
 10
1010.2896257219
 20
-719.5924395413
 10
1017.0251310059
 20
-709.9998767528
 10
1023.9047249085
 20
-700.5582397366
 10
1030.9223074901
 20
-691.2759001229
 10
1038.0716564605
 20
-682.1610882974
 10
1045.3464326959
 20
-673.2218861036
 10
1052.7401858598
 20
-664.466219677
 10
1060.2463601222
 20
-655.9018524173
 10
1067.8582999725
 20
-647.5363781046
 10
1075.5692561209
 20
-639.3772141663
 10
1083.3723914826
 20
-631.4315951002
 10
1091.2607872401
 20
-623.70656606
 10
1099.2274489778
 20
-616.2089766087
 10
1107.2653128843
 20
-608.9454746448
 10
1115.3672520148
 20
-601.9225005083
 10
1123.5260826111
 20
-595.14628127
 10
1125.630749363
 20
-593.4457578195
  0
LWPOLYLINE
  5
D3
330
1F
100
AcDbEntity
  8
0
  6
Continuous
 62
     7
370
    25
100
AcDbPolyline
 90
      189
 70
   128
 43
0.0
 10
819.6128602168
 20
-929.6086821501
 10
819.7372455499
 20
-920.9421979025
 10
820.1102626265
 20
-912.1417807644
 10
820.7314948341
 20
-903.2172596802
 10
821.6002483356
 20
-894.1786022023
 10
822.715552844
 20
-885.0359033591
 10
824.0761627062
 20
-875.7993743799
 10
825.6805582946
 20
-866.4793312902
 10
827.5269477038
 20
-857.0861833903
 10
829.6132687521
 20
-847.630421629
 10
831.9371912848
 20
-838.1226068871
 10
834.4961197767
 20
-828.5733581817
 10
837.2871962308
 20
-818.9933408065
 10
840.3073033705
 20
-809.3932544198
 10
843.553068121
 20
-799.7838210945
 10
847.0208653769
 20
-790.1757733428
 10
850.7068220505
 20
-780.5798421294
 10
854.6068213981
 20
-771.0067448863
 10
858.7165076176
 20
-761.4671735429
 10
863.0312907131
 20
-751.9717825846
 10
867.5463516221
 20
-742.5311771527
 10
872.2566475969
 20
-733.1559012003
 10
877.1569178373
 20
-723.8564257155
 10
882.2416893661
 20
-714.6431370272
 10
887.5052831415
 20
-705.5263252045
 10
892.9418204003
 20
-696.5161725642
 10
898.5452292232
 20
-687.6227422983
 10
904.3092513167
 20
-678.855967235
 10
910.227449003
 20
-670.2256387444
 10
916.2932124095
 20
-661.7413958035
 10
922.4997668516
 20
-653.4127142304
 10
928.8401803992
 20
-645.2488961006
 10
935.3073716184
 20
-637.2590593585
 10
941.8941174809
 20
-629.4521276334
 10
948.5930614313
 20
-621.8368202729
 10
955.3967216029
 20
-614.4216426047
 10
962.2974991745
 20
-607.2148764371
 10
969.2876868571
 20
-600.2245708093
 10
976.3594775022
 20
-593.4585330017
 10
983.5049728208
 20
-586.9243198162
 10
990.7161922056
 20
-580.629229136
 10
997.9850816436
 20
-574.5802917751
 10
1005.3035227117
 20
-568.7842636254
 10
1012.6633416442
 20
-563.2476181117
 10
1020.0563184614
 20
-557.9765389613
 10
1027.4741961504
 20
-552.9769132977
 10
1034.9086898875
 20
-548.2543250656
 10
1042.3514962906
 20
-543.814048794
 10
1049.7943026937
 20
-539.6610437057
 10
1057.2287964308
 20
-535.7999481779
 10
1064.6466741198
 20
-532.2350745622
 10
1072.039650937
 20
-528.970404368
 10
1079.3994698695
 20
-526.0095838159
 10
1086.7179109376
 20
-523.3559197651
 10
1093.9868003756
 20
-521.0123760199
 10
1101.1980197604
 20
-518.9815700201
 10
1108.343515079
 20
-517.2657699172
 10
1115.4153057241
 20
-515.8668920411
 10
1122.4054934067
 20
-514.7864987601
 10
1129.3062709783
 20
-514.0257967359
 10
1136.1099311499
 20
-513.5856355756
 10
1142.8088751003
 20
-513.4665068832
 10
1149.3956209628
 20
-513.6685437101
 10
1155.862812182
 20
-514.1915204071
 10
1162.2032257296
 20
-515.0348528757
 10
1168.4097801717
 20
-516.1975992212
 10
1174.4755435782
 20
-517.6784608041
 10
1180.3937412645
 20
-519.4757836907
 10
1186.157763358
 20
-521.5875605005
 10
1191.7611721809
 20
-524.0114326479
 10
1197.1977094397
 20
-526.7446929767
 10
1202.4613032151
 20
-529.7842887834
 10
1207.5460747439
 20
-533.1268252271
 10
1212.4463449843
 20
-536.7685691205
 10
1217.1566409591
 20
-540.7054530998
 10
1221.6717018681
 20
-544.9330801675
 10
1225.9864849637
 20
-549.4467286031
 10
1230.0961711831
 20
-554.2413572364
 10
1233.9961705307
 20
-559.3116110785
 10
1237.6821272043
 20
-564.651827302
 10
1241.1499244602
 20
-570.2560415661
 10
1244.3956892107
 20
-576.1179946778
 10
1247.4157963504
 20
-582.2311395827
 10
1250.2068728045
 20
-588.588648677
 10
1252.7658012964
 20
-595.1834214334
 10
1255.0897238291
 20
-602.0080923313
 10
1257.1760448774
 20
-609.0550390833
 10
1259.0224342866
 20
-616.316391148
 10
1260.626829875
 20
-623.7840385206
 10
1261.9874397373
 20
-631.449640791
 10
1263.1027442456
 20
-639.3046364583
 10
1263.9714977471
 20
-647.3402524938
 10
1264.5927299547
 20
-655.5475141384
 10
1264.9657470313
 20
-663.917254927
 10
1265.0901323644
 20
-672.440126926
 10
1264.9657470313
 20
-681.1066111736
 10
1264.5927299547
 20
-689.9070283117
 10
1263.9714977471
 20
-698.8315493959
 10
1263.1027442456
 20
-707.8702068738
 10
1261.9874397373
 20
-717.012905717
 10
1260.626829875
 20
-726.2494346962
 10
1259.0224342866
 20
-735.5694777859
 10
1257.1760448774
 20
-744.9626256858
 10
1255.0897238291
 20
-754.4183874471
 10
1252.7658012964
 20
-763.926202189
 10
1250.2068728045
 20
-773.4754508944
 10
1247.4157963504
 20
-783.0554682696
 10
1244.3956892107
 20
-792.6555546563
 10
1241.1499244602
 20
-802.2649879816
 10
1237.6821272043
 20
-811.8730357333
 10
1233.9961705307
 20
-821.4689669467
 10
1230.0961711831
 20
-831.0420641898
 10
1225.9864849637
 20
-840.5816355332
 10
1221.6717018681
 20
-850.0770264915
 10
1217.1566409591
 20
-859.5176319234
 10
1212.4463449843
 20
-868.8929078758
 10
1207.5460747439
 20
-878.1923833606
 10
1202.4613032151
 20
-887.4056720489
 10
1197.1977094397
 20
-896.5224838716
 10
1191.7611721809
 20
-905.5326365119
 10
1186.157763358
 20
-914.4260667778
 10
1180.3937412645
 20
-923.1928418411
 10
1174.4755435782
 20
-931.8231703317
 10
1168.4097801717
 20
-940.3074132725
 10
1162.2032257296
 20
-948.6360948457
 10
1155.862812182
 20
-956.7999129755
 10
1149.3956209628
 20
-964.7897497175
 10
1142.8088751003
 20
-972.5966814427
 10
1136.1099311499
 20
-980.2119888032
 10
1129.3062709783
 20
-987.6271664714
 10
1122.4054934067
 20
-994.833932639
 10
1115.4153057241
 20
-1001.8242382668
 10
1108.343515079
 20
-1008.5902760744
 10
1101.1980197604
 20
-1015.1244892599
 10
1093.9868003756
 20
-1021.41957994
 10
1086.7179109376
 20
-1027.468517301
 10
1079.3994698695
 20
-1033.2645454507
 10
1072.039650937
 20
-1038.8011909644
 10
1064.6466741198
 20
-1044.0722701148
 10
1057.2287964308
 20
-1049.0718957784
 10
1049.7943026937
 20
-1053.7944840105
 10
1042.3514962906
 20
-1058.2347602821
 10
1034.9086898875
 20
-1062.3877653704
 10
1027.4741961504
 20
-1066.2488608982
 10
1020.0563184614
 20
-1069.8137345139
 10
1012.6633416442
 20
-1073.0784047081
 10
1005.3035227117
 20
-1076.0392252602
 10
997.9850816436
 20
-1078.692889311
 10
990.7161922056
 20
-1081.0364330562
 10
983.5049728208
 20
-1083.067239056
 10
976.3594775022
 20
-1084.7830391589
 10
969.2876868571
 20
-1086.181917035
 10
962.2974991745
 20
-1087.2623103159
 10
955.3967216029
 20
-1088.0230123402
 10
948.5930614313
 20
-1088.4631735005
 10
941.8941174809
 20
-1088.5823021929
 10
935.3073716184
 20
-1088.380265366
 10
928.8401803992
 20
-1087.857288669
 10
922.4997668516
 20
-1087.0139562004
 10
916.2932124095
 20
-1085.8512098549
 10
910.227449003
 20
-1084.370348272
 10
904.3092513167
 20
-1082.5730253854
 10
898.5452292232
 20
-1080.4612485756
 10
892.9418204003
 20
-1078.0373764282
 10
887.5052831415
 20
-1075.3041160994
 10
882.2416893661
 20
-1072.2645202927
 10
877.1569178373
 20
-1068.921983849
 10
872.2566475969
 20
-1065.2802399556
 10
867.5463516221
 20
-1061.3433559763
 10
863.0312907131
 20
-1057.1157289085
 10
858.7165076176
 20
-1052.602080473
 10
854.6068213981
 20
-1047.8074518397
 10
850.7068220505
 20
-1042.7371979976
 10
847.0208653769
 20
-1037.3969817741
 10
843.553068121
 20
-1031.79276751
 10
840.3073033705
 20
-1025.9308143983
 10
837.2871962308
 20
-1019.8176694934
 10
834.4961197767
 20
-1013.4601603991
 10
831.9371912848
 20
-1006.8653876427
 10
829.6132687521
 20
-1000.0407167447
 10
827.5269477038
 20
-992.9937699928
 10
825.6805582946
 20
-985.7324179281
 10
824.0761627062
 20
-978.2647705555
 10
822.715552844
 20
-970.5991682851
 10
821.6002483356
 20
-962.7441726177
 10
820.7314948341
 20
-954.7085565823
 10
820.1102626265
 20
-946.5012949377
 10
819.7372455499
 20
-938.1315541491
 10
819.6128602168
 20
-929.6086821501
  0
LWPOLYLINE
  5
D4
330
1F
100
AcDbEntity
  8
0
  6
Continuous
 62
     7
370
    25
100
AcDbPolyline
 90
      177
 70
   128
 43
0.0
 10
846.0586538332
 20
-914.341850459
 10
846.1837265962
 20
-906.179204453
 10
846.5587854986
 20
-897.8825545659
 10
847.1833525848
 20
-889.4624736225
 10
848.0566319385
 20
-880.9296917421
 10
849.1775106973
 20
-872.2950826638
 10
850.5445604708
 20
-863.5696498906
 10
852.1560391609
 20
-854.7645126661
 10
854.0098931819
 20
-845.8908918054
 10
856.1037600774
 20
-836.9600953957
 10
858.4349715307
 20
-827.9835043855
 10
861.0005567658
 20
-818.9725580818
 10
863.7972463323
 20
-809.9387395723
 10
866.8214762726
 20
-800.8935610916
 10
870.0693926633
 20
-791.8485493511
 10
873.5368565264
 20
-782.8152308496
 10
877.2194491039
 20
-773.8051171847
 10
881.1124774887
 20
-764.8296903828
 10
885.2109806052
 20
-755.9003882674
 10
889.5097355314
 20
-747.0285898828
 10
894.0032641546
 20
-738.2256009937
 10
898.6858401526
 20
-729.5026396773
 10
903.5514962906
 20
-720.870822028
 10
908.5940320263
 20
-712.3411479913
 10
913.8070214108
 20
-703.924487346
 10
919.1838212779
 20
-695.6315658526
 10
924.7175797099
 20
-687.4729515847
 10
930.4012447689
 20
-679.4590414616
 10
936.2275734838
 20
-671.6000479993
 10
942.1891410803
 20
-663.9059862957
 10
948.2783504425
 20
-656.3866612681
 10
954.4874417946
 20
-649.0516551587
 10
960.808502589
 20
-641.9103153227
 10
967.2334775903
 20
-634.9717423173
 10
973.7541791401
 20
-628.2447783038
 10
980.3622975908
 20
-621.7379957799
 10
987.0494118954
 20
-615.4596866554
 10
993.8070003386
 20
-609.4178516854
 10
1000.6264513965
 20
-603.6201902742
 10
1007.4990747105
 20
-598.0740906641
 10
1014.4161121621
 20
-592.7866205198
 10
1021.3687490338
 20
-587.7645179219
 10
1028.3481252418
 20
-583.0141827803
 10
1035.3453466274
 20
-578.5416686784
 10
1042.3514962906
 20
-574.3526751586
 10
1049.3576459538
 20
-570.4525404592
 10
1056.3548673394
 20
-566.8462347119
 10
1063.3342435475
 20
-563.5383536076
 10
1070.2868804191
 20
-560.5331125402
 10
1077.2039178708
 20
-557.8343412348
 10
1084.0765411847
 20
-555.445478867
 10
1090.8959922426
 20
-553.3695696805
 10
1097.6535806858
 20
-551.6092591073
 10
1104.3406949904
 20
-550.166790397
 10
1110.9488134412
 20
-549.0440017577
 10
1117.4695149909
 20
-548.2423240135
 10
1123.8944899922
 20
-547.7627787815
 10
1130.2155507867
 20
-547.6059771695
 10
1136.4246421387
 20
-547.7721189975
 10
1142.513851501
 20
-548.2609925427
 10
1148.4754190975
 20
-549.0719748099
 10
1154.3017478124
 20
-550.2040323249
 10
1159.9854128713
 20
-551.6557224516
 10
1165.5191713033
 20
-553.4251952306
 10
1170.8959711705
 20
-555.5101957367
 10
1176.1089605549
 20
-557.9080669522
 10
1181.1514962906
 20
-560.6157531531
 10
1186.0171524286
 20
-563.6298038029
 10
1190.6997284266
 20
-566.9463779502
 10
1195.1932570498
 20
-570.5612491232
 10
1199.492011976
 20
-574.4698107154
 10
1203.5905150926
 20
-578.6670818566
 10
1207.4835434774
 20
-583.1477137598
 10
1211.1661360548
 20
-587.9059965376
 10
1214.6335999179
 20
-592.9358664786
 10
1217.8815163086
 20
-598.2309137746
 10
1220.9057462489
 20
-603.7843906891
 10
1223.7024358154
 20
-609.5892201561
 10
1226.2680210505
 20
-615.6380047988
 10
1228.5992325038
 20
-621.9230363564
 10
1230.6930993993
 20
-628.4363055072
 10
1232.5469534203
 20
-635.1695120752
 10
1234.1584321104
 20
-642.1140756075
 10
1235.5254818839
 20
-649.2611463086
 10
1236.6463606427
 20
-656.6016163185
 10
1237.5196399964
 20
-664.1261313188
 10
1238.1442070826
 20
-671.8251024536
 10
1238.5192659851
 20
-679.6887185493
 10
1238.644338748
 20
-687.7069586171
 10
1238.5192659851
 20
-695.8696046231
 10
1238.1442070826
 20
-704.1662545102
 10
1237.5196399964
 20
-712.5863354536
 10
1236.6463606427
 20
-721.119117334
 10
1235.5254818839
 20
-729.7537264123
 10
1234.1584321104
 20
-738.4791591855
 10
1232.5469534203
 20
-747.28429641
 10
1230.6930993993
 20
-756.1579172707
 10
1228.5992325038
 20
-765.0887136804
 10
1226.2680210505
 20
-774.0653046906
 10
1223.7024358154
 20
-783.0762509943
 10
1220.9057462489
 20
-792.1100695038
 10
1217.8815163086
 20
-801.1552479845
 10
1214.6335999179
 20
-810.200259725
 10
1211.1661360548
 20
-819.2335782265
 10
1207.4835434774
 20
-828.2436918914
 10
1203.5905150926
 20
-837.2191186933
 10
1199.492011976
 20
-846.1484208087
 10
1195.1932570498
 20
-855.0202191933
 10
1190.6997284266
 20
-863.8232080824
 10
1186.0171524286
 20
-872.5461693988
 10
1181.1514962906
 20
-881.1779870481
 10
1176.1089605549
 20
-889.7076610848
 10
1170.8959711705
 20
-898.1243217301
 10
1165.5191713033
 20
-906.4172432235
 10
1159.9854128713
 20
-914.5758574914
 10
1154.3017478124
 20
-922.5897676145
 10
1148.4754190974
 20
-930.4487610768
 10
1142.513851501
 20
-938.1428227804
 10
1136.4246421387
 20
-945.662147808
 10
1130.2155507867
 20
-952.9971539174
 10
1123.8944899922
 20
-960.1384937534
 10
1117.4695149909
 20
-967.0770667588
 10
1110.9488134411
 20
-973.8040307723
 10
1104.3406949904
 20
-980.3108132962
 10
1097.6535806858
 20
-986.5891224206
 10
1090.8959922426
 20
-992.6309573907
 10
1084.0765411847
 20
-998.4286188019
 10
1077.2039178708
 20
-1003.974718412
 10
1070.2868804191
 20
-1009.2621885563
 10
1063.3342435474
 20
-1014.2842911542
 10
1056.3548673394
 20
-1019.0346262957
 10
1049.3576459538
 20
-1023.5071403977
 10
1042.3514962906
 20
-1027.6961339175
 10
1035.3453466274
 20
-1031.5962686169
 10
1028.3481252418
 20
-1035.2025743642
 10
1021.3687490338
 20
-1038.5104554685
 10
1014.4161121621
 20
-1041.5156965359
 10
1007.4990747105
 20
-1044.2144678413
 10
1000.6264513965
 20
-1046.6033302091
 10
993.8070003386
 20
-1048.6792393956
 10
987.0494118954
 20
-1050.4395499688
 10
980.3622975908
 20
-1051.8820186791
 10
973.7541791401
 20
-1053.0048073184
 10
967.2334775903
 20
-1053.8064850626
 10
960.808502589
 20
-1054.2860302946
 10
954.4874417946
 20
-1054.4428319066
 10
948.2783504425
 20
-1054.2766900786
 10
942.1891410803
 20
-1053.7878165334
 10
936.2275734838
 20
-1052.9768342662
 10
930.4012447688
 20
-1051.8447767512
 10
924.7175797099
 20
-1050.3930866245
 10
919.1838212779
 20
-1048.6236138455
 10
913.8070214108
 20
-1046.5386133394
 10
908.5940320263
 20
-1044.1407421239
 10
903.5514962906
 20
-1041.433055923
 10
898.6858401526
 20
-1038.4190052732
 10
894.0032641546
 20
-1035.1024311258
 10
889.5097355314
 20
-1031.4875599529
 10
885.2109806052
 20
-1027.5789983606
 10
881.1124774887
 20
-1023.3817272195
 10
877.2194491039
 20
-1018.9010953163
 10
873.5368565264
 20
-1014.1428125385
 10
870.0693926633
 20
-1009.1129425975
 10
866.8214762726
 20
-1003.8178953015
 10
863.7972463323
 20
-998.264418387
 10
861.0005567658
 20
-992.45958892
 10
858.4349715307
 20
-986.4108042773
 10
856.1037600774
 20
-980.1257727197
 10
854.0098931819
 20
-973.6125035689
 10
852.1560391609
 20
-966.8792970009
 10
850.5445604708
 20
-959.9347334686
 10
849.1775106973
 20
-952.7876627675
 10
848.0566319385
 20
-945.4471927576
 10
847.1833525848
 20
-937.9226777573
 10
846.5587854986
 20
-930.2237066225
 10
846.1837265962
 20
-922.3600905267
 10
846.0586538332
 20
-914.341850459
  0
LWPOLYLINE
  5
D5
330
1F
100
AcDbEntity
  8
0
  6
Continuous
 62
     7
370
    25
100
AcDbPolyline
 90
       49
 70
   128
 43
0.0
 10
903.1611415811
 20
-993.2905616266
 10
903.3256555908
 20
-989.8893502654
 10
903.9463699318
 20
-980.4692172682
 10
904.8145035984
 20
-970.9333962777
 10
905.9291912158
 20
-961.2913928078
 10
907.2893216394
 20
-951.5528182171
 10
908.8935390614
 20
-941.7273801287
 10
910.740244363
 20
-931.8248727528
 10
912.8275967084
 20
-921.8551671241
 10
915.1535153791
 20
-911.8282012622
 10
917.715681849
 20
-901.7539702645
 10
920.5115420948
 20
-891.6425163437
 10
923.5383091421
 20
-881.5039188169
 10
926.7929658438
 20
-871.3482840587
 10
930.2722678873
 20
-861.1857354265
 10
933.9727470286
 20
-851.02640317
 10
937.8907145497
 20
-840.8804143323
 10
942.0222649353
 20
-830.757882656
 10
946.3632797661
 20
-820.6688985006
 10
950.9094318242
 20
-810.623518785
 10
955.6561894062
 20
-800.6317569622
 10
960.5988208411
 20
-790.7035730376
 10
965.7323992064
 20
-780.8488636409
 10
971.0518072393
 20
-771.0774521607
 10
976.5517424385
 20
-761.3990789525
 10
982.2267223487
 20
-751.8233916293
 10
988.0710900267
 20
-742.3599354443
 10
994.0790196797
 20
-733.0181437765
 10
1000.2445224726
 20
-723.807328727
 10
1006.5614524983
 20
-714.7366718366
 10
1013.0235129034
 20
-705.8152149332
 10
1019.6242621657
 20
-697.0518511193
 10
1026.3571205148
 20
-688.4553159063
 10
1033.215376491
 20
-680.0341785076
 10
1040.1921936356
 20
-671.7968332961
 10
1047.2806173055
 20
-663.7514914366
 10
1054.4735816059
 20
-655.9061727008
 10
1061.7639164335
 20
-648.2686974731
 10
1069.1443546241
 20
-640.8466789548
 10
1076.6075391963
 20
-633.6475155756
 10
1084.1460306854
 20
-626.6783836178
 10
1091.7523145592
 20
-619.946230064
 10
1099.4188087085
 20
-613.4577656711
 10
1107.1378710053
 20
-607.2194582815
 10
1114.9018069202
 20
-601.2375263758
 10
1122.7028771932
 20
-595.5179328737
 10
1130.5333055478
 20
-590.0663791904
 10
1138.3852864427
 20
-584.8882995533
 10
1139.243362401
 20
-584.3398497414
  0
LWPOLYLINE
  5
D6
330
1F
100
AcDbEntity
  8
0
  6
Continuous
 62
     7
370
    25
100
AcDbPolyline
 90
       62
 70
   128
 43
0.0
 10
897.9185696116
 20
-944.2799425877
 10
898.0436423746
 20
-936.1172965817
 10
898.4187012771
 20
-927.8206466946
 10
899.0432683633
 20
-919.4005657512
 10
899.916547717
 20
-910.8677838707
 10
901.0374264757
 20
-902.2331747925
 10
902.4044762492
 20
-893.5077420193
 10
904.0159549394
 20
-884.7026047948
 10
905.8698089604
 20
-875.8289839341
 10
907.9636758558
 20
-866.8981875243
 10
910.2948873092
 20
-857.9215965142
 10
912.8604725442
 20
-848.9106502105
 10
915.6571621107
 20
-839.876831701
 10
918.681392051
 20
-830.8316532203
 10
921.9293084418
 20
-821.7866414798
 10
925.3967723048
 20
-812.7533229783
 10
929.0793648823
 20
-803.7432093134
 10
932.9723932671
 20
-794.7677825115
 10
937.0708963836
 20
-785.8384803961
 10
941.3696513099
 20
-776.9666820115
 10
945.8631799331
 20
-768.1636931223
 10
950.545755931
 20
-759.440731806
 10
955.411412069
 20
-750.8089141567
 10
960.4539478047
 20
-742.2792401199
 10
965.6669371892
 20
-733.8625794747
 10
971.0437370563
 20
-725.5696579813
 10
976.5774954883
 20
-717.4110437134
 10
982.2611605473
 20
-709.3971335903
 10
988.0874892622
 20
-701.538140128
 10
994.0490568587
 20
-693.8440784243
 10
1000.1382662209
 20
-686.3247533968
 10
1006.347357573
 20
-678.9897472874
 10
1012.6684183674
 20
-671.8484074514
 10
1019.0933933687
 20
-664.909834446
 10
1025.6140949185
 20
-658.1828704324
 10
1032.2222133692
 20
-651.6760879086
 10
1038.9093276738
 20
-645.3977787841
 10
1045.6669161171
 20
-639.3559438141
 10
1052.4863671749
 20
-633.5582824029
 10
1059.3589904889
 20
-628.0121827928
 10
1066.2760279405
 20
-622.7247126485
 10
1073.2286648122
 20
-617.7026100506
 10
1080.2080410203
 20
-612.952274909
 10
1087.2052624058
 20
-608.4797608071
 10
1094.211412069
 20
-604.2907672872
 10
1101.2175617322
 20
-600.3906325879
 10
1108.2147831178
 20
-596.7843268406
 10
1115.1941593259
 20
-593.4764457363
 10
1122.1467961976
 20
-590.4712046689
 10
1129.0638336492
 20
-587.7724333635
 10
1135.9364569632
 20
-585.3835709957
 10
1142.755908021
 20
-583.3076618092
 10
1149.5134964642
 20
-581.547351236
 10
1156.2006107689
 20
-580.1048825257
 10
1162.8087292196
 20
-578.9820938864
 10
1169.3294307693
 20
-578.1804161422
 10
1175.7544057706
 20
-577.7008709102
 10
1182.0754665651
 20
-577.5440692982
 10
1188.2845579171
 20
-577.7102111261
 10
1194.3737672794
 20
-578.1990846714
 10
1200.3353348759
 20
-579.0100669386
 10
1204.6272081593
 20
-579.8100863542
  0
LWPOLYLINE
  5
D7
330
1F
100
AcDbEntity
  8
0
  6
Continuous
 62
     7
370
    25
100
AcDbPolyline
 90
       18
 70
   128
 43
0.0
 10
931.9357002003
 20
-1052.1768148506
 10
929.0793648823
 20
-1048.839187445
 10
925.3967723048
 20
-1044.0809046672
 10
921.9293084418
 20
-1039.0510347262
 10
918.681392051
 20
-1033.7559874302
 10
915.6571621107
 20
-1028.2025105156
 10
912.8604725442
 20
-1022.3976810487
 10
910.2948873092
 20
-1016.348896406
 10
907.9636758558
 20
-1010.0638648484
 10
905.8698089604
 20
-1003.5505956976
 10
904.0159549394
 20
-996.8173891296
 10
902.4044762492
 20
-989.8728255973
 10
901.0374264757
 20
-982.7257548961
 10
899.916547717
 20
-975.3852848863
 10
899.0432683633
 20
-967.860769886
 10
898.4187012771
 20
-960.1617987511
 10
898.0436423746
 20
-952.2981826554
 10
897.9185696116
 20
-944.2799425877
  0
LWPOLYLINE
  5
D8
330
1F
100
AcDbEntity
  8
0
  6
Continuous
 62
     7
370
    25
100
AcDbPolyline
 90
       50
 70
   128
 43
0.0
 10
901.7302566763
 20
-975.2995890398
 10
901.855137638
 20
-966.6444792222
 10
902.2296395515
 20
-957.854955223
 10
902.8533396609
 20
-948.9409390834
 10
903.7255339032
 20
-939.9124933773
 10
904.8452377033
 20
-930.779809852
 10
906.2111870851
 20
-921.5531979239
 10
907.8218400988
 20
-912.2430730401
 10
909.6753785611
 20
-902.8599449212
 10
911.7697101079
 20
-893.4144056975
 10
914.102470556
 20
-883.9171179518
 10
916.6710265724
 20
-874.3788026832
 10
919.4724786464
 20
-864.8102272049
 10
922.503664363
 20
-855.2221929889
 10
925.7611619727
 20
-845.6255234735
 10
929.2412942542
 20
-836.0310518447
 10
932.9401326653
 20
-826.4496088076
 10
936.8535017778
 20
-816.8920103599
 10
940.9769839908
 20
-807.3690455823
 10
945.3059245175
 20
-797.8914644596
 10
949.8354366399
 20
-788.469965745
 10
954.5604072249
 20
-779.1151848834
 10
959.4755024966
 20
-769.8376820053
 10
964.5751740569
 20
-760.6479300059
 10
969.8536651491
 20
-751.5563027231
 10
975.3050171565
 20
-742.5730632268
 10
980.9230763285
 20
-733.7083522337
 10
986.7015007273
 20
-724.9721766595
 10
992.6337673871
 20
-716.374398323
 10
998.7131796775
 20
-707.9247228135
 10
1004.9328748631
 20
-699.6326885346
 10
1011.2858318501
 20
-691.507655937
 10
1017.7648791126
 20
-683.5587969515
 10
1024.3627027875
 20
-675.7950846358
 10
1031.0718549316
 20
-668.225283045
 10
1037.8847619284
 20
-660.8579373384
 10
1044.7937330379
 20
-653.7013641332
 10
1051.7909690785
 20
-646.7636421164
 10
1058.8685712305
 20
-640.0526029252
 10
1066.0185499534
 20
-633.5758223062
 10
1073.2328340043
 20
-627.3406115635
 10
1080.5032795493
 20
-621.3540093057
 10
1087.8216793569
 20
-615.6227734996
 10
1095.1797720623
 20
-610.1533738424
 10
1102.5692514935
 20
-604.9519844576
 10
1109.9817760477
 20
-600.024476926
 10
1117.4089781074
 20
-595.3764136571
 10
1124.8424734868
 20
-591.0130416102
 10
1132.2738708956
 20
-586.9392863713
 10
1134.041668915
 20
-586.0127265881
  0
LWPOLYLINE
  5
D9
330
1F
100
AcDbEntity
  8
0
  6
Continuous
 62
     7
370
    25
100
AcDbPolyline
 90
        3
 70
   128
 43
0.0
 10
902.0085474777
 20
-987.9494326355
 10
901.855137638
 20
-983.810514368
 10
901.7302566763
 20
-975.2995890398
  0
LINE
  5
DA
330
1F
100
AcDbEntity
  8
0
  6
Continuous
 62
     7
370
    25
100
AcDbLine
 10
-312.3500656237
 20
-918.82321041
 30
0.0
 11
-312.3500656237
 21
-1004.82321041
 31
0.0
  0
LINE
  5
DB
330
1F
100
AcDbEntity
  8
0
  6
Continuous
 62
     7
370
    25
100
AcDbLine
 10
587.6499343763
 20
-1004.82321041
 30
0.0
 11
587.6499343763
 21
-918.82321041
 31
0.0
  0
LINE
  5
DC
330
1F
100
AcDbEntity
  8
0
  6
Continuous
 62
     7
370
    25
100
AcDbLine
 10
-262.3500656237
 20
-1004.82321041
 30
0.0
 11
-262.3500656237
 21
-1040.82321041
 31
0.0
  0
LINE
  5
DD
330
1F
100
AcDbEntity
  8
0
  6
Continuous
 62
     7
370
    25
100
AcDbLine
 10
537.6499343763
 20
-1040.82321041
 30
0.0
 11
537.6499343763
 21
-1004.82321041
 31
0.0
  0
LINE
  5
DE
330
1F
100
AcDbEntity
  8
0
  6
Continuous
 62
     7
370
    25
100
AcDbLine
 10
-217.3500656237
 20
-1040.82321041
 30
0.0
 11
-217.3500656237
 21
-1076.82321041
 31
0.0
  0
LINE
  5
DF
330
1F
100
AcDbEntity
  8
0
  6
Continuous
 62
     7
370
    25
100
AcDbLine
 10
492.6499343763
 20
-1076.82321041
 30
0.0
 11
492.6499343763
 21
-1040.82321041
 31
0.0
  0
LINE
  5
E0
330
1F
100
AcDbEntity
  8
0
  6
Continuous
 62
     7
370
    25
100
AcDbLine
 10
-177.3500656237
 20
-1076.82321041
 30
0.0
 11
-177.3500656237
 21
-1112.82321041
 31
0.0
  0
LINE
  5
E1
330
1F
100
AcDbEntity
  8
0
  6
Continuous
 62
     7
370
    25
100
AcDbLine
 10
452.6499343763
 20
-1112.82321041
 30
0.0
 11
452.6499343763
 21
-1076.82321041
 31
0.0
  0
LINE
  5
E2
330
1F
100
AcDbEntity
  8
0
  6
Continuous
 62
     7
370
    25
100
AcDbLine
 10
-312.3500656237
 20
-1004.82321041
 30
0.0
 11
587.6499343763
 21
-1004.82321041
 31
0.0
  0
LINE
  5
E3
330
1F
100
AcDbEntity
  8
0
  6
Continuous
 62
     7
370
    25
100
AcDbLine
 10
-312.3500656237
 20
-918.82321041
 30
0.0
 11
587.6499343763
 21
-918.82321041
 31
0.0
  0
LINE
  5
E4
330
1F
100
AcDbEntity
  8
0
  6
Continuous
 62
     7
370
    25
100
AcDbLine
 10
-262.3500656237
 20
-1040.82321041
 30
0.0
 11
537.6499343763
 21
-1040.82321041
 31
0.0
  0
LINE
  5
E5
330
1F
100
AcDbEntity
  8
0
  6
Continuous
 62
     7
370
    25
100
AcDbLine
 10
-217.3500656237
 20
-1076.82321041
 30
0.0
 11
492.6499343763
 21
-1076.82321041
 31
0.0
  0
LINE
  5
E6
330
1F
100
AcDbEntity
  8
0
  6
Continuous
 62
     7
370
    25
100
AcDbLine
 10
-177.3500656237
 20
-1112.82321041
 30
0.0
 11
452.6499343763
 21
-1112.82321041
 31
0.0
  0
ENDSEC
  0
SECTION
  2
OBJECTS
  0
DICTIONARY
  5
C
330
0
100
AcDbDictionary
281
     1
  3
ACAD_GROUP
350
D
  3
ACAD_LAYOUT
350
1A
  3
ACAD_MLINESTYLE
350
17
  3
ACAD_PLOTSETTINGS
350
19
  3
ACAD_PLOTSTYLENAME
350
E
  3
ACAD_SCALELIST
350
47
  0
DICTIONARY
  5
D
102
{ACAD_REACTORS
330
C
102
}
330
C
100
AcDbDictionary
281
     1
  0
DICTIONARY
  5
1A
102
{ACAD_REACTORS
330
C
102
}
330
C
100
AcDbDictionary
281
     1
  3
Layout1
350
1E
  3
Layout2
350
26
  3
Model
350
22
  0
DICTIONARY
  5
17
102
{ACAD_REACTORS
330
C
102
}
330
C
100
AcDbDictionary
281
     1
  3
Standard
350
18
  0
DICTIONARY
  5
19
102
{ACAD_REACTORS
330
C
102
}
330
C
100
AcDbDictionary
281
     1
  0
ACDBDICTIONARYWDFLT
  5
E
102
{ACAD_REACTORS
330
C
102
}
330
C
100
AcDbDictionary
281
     1
  3
Normal
350
F
100
AcDbDictionaryWithDefault
340
F
  0
DICTIONARY
  5
47
102
{ACAD_REACTORS
330
C
102
}
330
C
100
AcDbDictionary
281
     1
  3
A0
350
48
  3
A1
350
49
  3
A2
350
4A
  3
A3
350
4B
  3
A4
350
4C
  3
A5
350
4D
  3
A6
350
4E
  3
A7
350
4F
  3
A8
350
50
  3
A9
350
51
  3
B0
350
52
  3
B1
350
53
  3
B2
350
54
  3
B3
350
55
  3
B4
350
56
  3
B5
350
57
  3
B6
350
58
  3
B7
350
59
  3
B8
350
5A
  3
B9
350
5B
  3
C0
350
5C
  3
C1
350
5D
  3
C2
350
5E
  3
C3
350
5F
  3
C4
350
60
  3
C5
350
61
  3
C6
350
62
  3
C7
350
63
  3
C8
350
64
  3
C9
350
65
  3
D0
350
66
  3
D1
350
67
  3
D2
350
68
  0
LAYOUT
  5
1E
102
{ACAD_REACTORS
330
1A
102
}
330
1A
100
AcDbPlotSettings
  1

  2
none_device
  4

  6

 40
0.0
 41
0.0
 42
0.0
 43
0.0
 44
0.0
 45
0.0
 46
0.0
 47
0.0
 48
0.0
 49
0.0
140
0.0
141
0.0
142
1.0
143
1.0
 70
   688
 72
     1
 73
     0
 74
     5
  7

 75
    16
147
1.0
148
0.0
149
0.0
100
AcDbLayout
  1
Layout1
 70
     1
 71
     1
 10
0.0
 20
0.0
 11
420.0
 21
297.0
 12
0.0
 22
0.0
 32
0.0
 14
1.0000000000E+20
 24
1.0000000000E+20
 34
1.0000000000E+20
 15
-1.0000000000E+20
 25
-1.0000000000E+20
 35
-1.0000000000E+20
146
0.0
 13
0.0
 23
0.0
 33
0.0
 16
1.0
 26
0.0
 36
0.0
 17
0.0
 27
1.0
 37
0.0
 76
     0
330
1B
  0
LAYOUT
  5
26
102
{ACAD_REACTORS
330
1A
102
}
330
1A
100
AcDbPlotSettings
  1

  2
none_device
  4

  6

 40
0.0
 41
0.0
 42
0.0
 43
0.0
 44
0.0
 45
0.0
 46
0.0
 47
0.0
 48
0.0
 49
0.0
140
0.0
141
0.0
142
1.0
143
1.0
 70
   688
 72
     1
 73
     0
 74
     5
  7

 75
    16
147
1.0
148
0.0
149
0.0
100
AcDbLayout
  1
Layout2
 70
     1
 71
     2
 10
0.0
 20
0.0
 11
0.0
 21
0.0
 12
0.0
 22
0.0
 32
0.0
 14
0.0
 24
0.0
 34
0.0
 15
0.0
 25
0.0
 35
0.0
146
0.0
 13
0.0
 23
0.0
 33
0.0
 16
1.0
 26
0.0
 36
0.0
 17
0.0
 27
1.0
 37
0.0
 76
     0
330
23
  0
LAYOUT
  5
22
102
{ACAD_REACTORS
330
1A
102
}
330
1A
100
AcDbPlotSettings
  1

  2
none_device
  4
Letter_(8.50_x_11.00_Inches)
  6

 40
6.35
 41
6.35
 42
6.35000508
 43
6.35000508
 44
215.9
 45
279.4
 46
0.0
 47
0.0
 48
0.0
 49
0.0
140
0.0
141
0.0
142
1.0
143
1.0
 70
  1712
 72
     1
 73
     0
 74
     0
  7

 75
     0
147
1.0
148
0.0
149
0.0
100
AcDbLayout
  1
Model
 70
     1
 71
     0
 10
0.0
 20
0.0
 11
279.4
 21
215.9
 12
0.0
 22
0.0
 32
0.0
 14
0.0
 24
0.0
 34
0.0
 15
279.4
 25
215.9
 35
0.0
146
0.0
 13
0.0
 23
0.0
 33
0.0
 16
1.0
 26
0.0
 36
0.0
 17
0.0
 27
1.0
 37
0.0
 76
     0
330
1F
331
29
  0
MLINESTYLE
  5
18
102
{ACAD_REACTORS
330
17
102
}
330
17
100
AcDbMlineStyle
  2
Standard
 70
     0
  3

 62
   256
 51
90.0
 52
90.0
 71
     2
 49
0.5
 62
   256
  6
BYLAYER
 49
-0.5
 62
   256
  6
BYLAYER
  0
ACDBPLACEHOLDER
  5
F
102
{ACAD_REACTORS
330
E
102
}
330
E
  0
SCALE
  5
48
102
{ACAD_REACTORS
330
47
102
}
330
47
100
AcDbScale
 70
     0
300
1:1
140
1.0
141
1.0
290
     1
  0
SCALE
  5
49
102
{ACAD_REACTORS
330
47
102
}
330
47
100
AcDbScale
 70
     0
300
1:2
140
1.0
141
2.0
290
     0
  0
SCALE
  5
4A
102
{ACAD_REACTORS
330
47
102
}
330
47
100
AcDbScale
 70
     0
300
1:4
140
1.0
141
4.0
290
     0
  0
SCALE
  5
4B
102
{ACAD_REACTORS
330
47
102
}
330
47
100
AcDbScale
 70
     0
300
1:5
140
1.0
141
5.0
290
     0
  0
SCALE
  5
4C
102
{ACAD_REACTORS
330
47
102
}
330
47
100
AcDbScale
 70
     0
300
1:8
140
1.0
141
8.0
290
     0
  0
SCALE
  5
4D
102
{ACAD_REACTORS
330
47
102
}
330
47
100
AcDbScale
 70
     0
300
1:10
140
1.0
141
10.0
290
     0
  0
SCALE
  5
4E
102
{ACAD_REACTORS
330
47
102
}
330
47
100
AcDbScale
 70
     0
300
1:16
140
1.0
141
16.0
290
     0
  0
SCALE
  5
4F
102
{ACAD_REACTORS
330
47
102
}
330
47
100
AcDbScale
 70
     0
300
1:20
140
1.0
141
20.0
290
     0
  0
SCALE
  5
50
102
{ACAD_REACTORS
330
47
102
}
330
47
100
AcDbScale
 70
     0
300
1:30
140
1.0
141
30.0
290
     0
  0
SCALE
  5
51
102
{ACAD_REACTORS
330
47
102
}
330
47
100
AcDbScale
 70
     0
300
1:40
140
1.0
141
40.0
290
     0
  0
SCALE
  5
52
102
{ACAD_REACTORS
330
47
102
}
330
47
100
AcDbScale
 70
     0
300
1:50
140
1.0
141
50.0
290
     0
  0
SCALE
  5
53
102
{ACAD_REACTORS
330
47
102
}
330
47
100
AcDbScale
 70
     0
300
1:100
140
1.0
141
100.0
290
     0
  0
SCALE
  5
54
102
{ACAD_REACTORS
330
47
102
}
330
47
100
AcDbScale
 70
     0
300
2:1
140
2.0
141
1.0
290
     0
  0
SCALE
  5
55
102
{ACAD_REACTORS
330
47
102
}
330
47
100
AcDbScale
 70
     0
300
4:1
140
4.0
141
1.0
290
     0
  0
SCALE
  5
56
102
{ACAD_REACTORS
330
47
102
}
330
47
100
AcDbScale
 70
     0
300
8:1
140
8.0
141
1.0
290
     0
  0
SCALE
  5
57
102
{ACAD_REACTORS
330
47
102
}
330
47
100
AcDbScale
 70
     0
300
10:1
140
10.0
141
1.0
290
     0
  0
SCALE
  5
58
102
{ACAD_REACTORS
330
47
102
}
330
47
100
AcDbScale
 70
     0
300
100:1
140
100.0
141
1.0
290
     0
  0
SCALE
  5
59
102
{ACAD_REACTORS
330
47
102
}
330
47
100
AcDbScale
 70
     0
300
1/128" = 1'-0"
140
0.0078125
141
12.0
290
     0
  0
SCALE
  5
5A
102
{ACAD_REACTORS
330
47
102
}
330
47
100
AcDbScale
 70
     0
300
1/64" = 1'-0"
140
0.015625
141
12.0
290
     0
  0
SCALE
  5
5B
102
{ACAD_REACTORS
330
47
102
}
330
47
100
AcDbScale
 70
     0
300
1/32" = 1'-0"
140
0.03125
141
12.0
290
     0
  0
SCALE
  5
5C
102
{ACAD_REACTORS
330
47
102
}
330
47
100
AcDbScale
 70
     0
300
1/16" = 1'-0"
140
0.0625
141
12.0
290
     0
  0
SCALE
  5
5D
102
{ACAD_REACTORS
330
47
102
}
330
47
100
AcDbScale
 70
     0
300
3/32" = 1'-0"
140
0.09375
141
12.0
290
     0
  0
SCALE
  5
5E
102
{ACAD_REACTORS
330
47
102
}
330
47
100
AcDbScale
 70
     0
300
1/8" = 1'-0"
140
0.125
141
12.0
290
     0
  0
SCALE
  5
5F
102
{ACAD_REACTORS
330
47
102
}
330
47
100
AcDbScale
 70
     0
300
3/16" = 1'-0"
140
0.1875
141
12.0
290
     0
  0
SCALE
  5
60
102
{ACAD_REACTORS
330
47
102
}
330
47
100
AcDbScale
 70
     0
300
1/4" = 1'-0"
140
0.25
141
12.0
290
     0
  0
SCALE
  5
61
102
{ACAD_REACTORS
330
47
102
}
330
47
100
AcDbScale
 70
     0
300
3/8" = 1'-0"
140
0.375
141
12.0
290
     0
  0
SCALE
  5
62
102
{ACAD_REACTORS
330
47
102
}
330
47
100
AcDbScale
 70
     0
300
1/2" = 1'-0"
140
0.5
141
12.0
290
     0
  0
SCALE
  5
63
102
{ACAD_REACTORS
330
47
102
}
330
47
100
AcDbScale
 70
     0
300
3/4" = 1'-0"
140
0.75
141
12.0
290
     0
  0
SCALE
  5
64
102
{ACAD_REACTORS
330
47
102
}
330
47
100
AcDbScale
 70
     0
300
1" = 1'-0"
140
1.0
141
12.0
290
     0
  0
SCALE
  5
65
102
{ACAD_REACTORS
330
47
102
}
330
47
100
AcDbScale
 70
     0
300
1-1/2" = 1'-0"
140
1.5
141
12.0
290
     0
  0
SCALE
  5
66
102
{ACAD_REACTORS
330
47
102
}
330
47
100
AcDbScale
 70
     0
300
3" = 1'-0"
140
3.0
141
12.0
290
     0
  0
SCALE
  5
67
102
{ACAD_REACTORS
330
47
102
}
330
47
100
AcDbScale
 70
     0
300
6" = 1'-0"
140
6.0
141
12.0
290
     0
  0
SCALE
  5
68
102
{ACAD_REACTORS
330
47
102
}
330
47
100
AcDbScale
 70
     0
300
1'-0" = 1'-0"
140
12.0
141
12.0
290
     0
  0
ENDSEC
  0
EOF
